ISO-10303-21;
HEADER;
FILE_DESCRIPTION(('FreeCAD Model'),'2;1');
FILE_NAME('Open CASCADE Shape Model','2025-05-29T05:36:33',('FreeCAD'),(
    'FreeCAD'),'Open CASCADE STEP processor 7.6','FreeCAD','Unknown');
FILE_SCHEMA(('AUTOMOTIVE_DESIGN { 1 0 10303 214 1 1 1 1 }'));
ENDSEC;
DATA;
#1 = APPLICATION_PROTOCOL_DEFINITION('international standard',
  'automotive_design',2000,#2);
#2 = APPLICATION_CONTEXT(
  'core data for automotive mechanical design processes');
#3 = SHAPE_DEFINITION_REPRESENTATION(#4,#10);
#4 = PRODUCT_DEFINITION_SHAPE('','',#5);
#5 = PRODUCT_DEFINITION('design','',#6,#9);
#6 = PRODUCT_DEFINITION_FORMATION('','',#7);
#7 = PRODUCT('Open CASCADE STEP translator 7.6 1',
  'Open CASCADE STEP translator 7.6 1','',(#8));
#8 = PRODUCT_CONTEXT('',#2,'mechanical');
#9 = PRODUCT_DEFINITION_CONTEXT('part definition',#2,'design');
#10 = ADVANCED_BREP_SHAPE_REPRESENTATION('',(#11,#15),#153);
#11 = AXIS2_PLACEMENT_3D('',#12,#13,#14);
#12 = CARTESIAN_POINT('',(0.,0.,0.));
#13 = DIRECTION('',(0.,0.,1.));
#14 = DIRECTION('',(1.,0.,-0.));
#15 = MANIFOLD_SOLID_BREP('',#16);
#16 = CLOSED_SHELL('',(#17,#53,#81,#109,#129,#141));
#17 = ADVANCED_FACE('',(#18),#48,.F.);
#18 = FACE_BOUND('',#19,.T.);
#19 = EDGE_LOOP('',(#20,#29,#36,#43));
#20 = ORIENTED_EDGE('',*,*,#21,.T.);
#21 = EDGE_CURVE('',#22,#24,#26,.T.);
#22 = VERTEX_POINT('',#23);
#23 = CARTESIAN_POINT('',(-197.7442806137,172.29242549133,0.));
#24 = VERTEX_POINT('',#25);
#25 = CARTESIAN_POINT('',(-197.7442806137,-181.4905671132,0.));
#26 = B_SPLINE_CURVE_WITH_KNOTS('',1,(#27,#28),.UNSPECIFIED.,.F.,.F.,(2,
    2),(-270.,-0.),.PIECEWISE_BEZIER_KNOTS.);
#27 = CARTESIAN_POINT('',(-197.7442806137,172.29242549133,0.));
#28 = CARTESIAN_POINT('',(-197.7442806137,-181.4905671132,0.));
#29 = ORIENTED_EDGE('',*,*,#30,.F.);
#30 = EDGE_CURVE('',#31,#24,#33,.T.);
#31 = VERTEX_POINT('',#32);
#32 = CARTESIAN_POINT('',(-197.7442806137,-181.4905671132,
    19.654610700255));
#33 = B_SPLINE_CURVE_WITH_KNOTS('',1,(#34,#35),.UNSPECIFIED.,.F.,.F.,(2,
    2),(-0.,15.),.PIECEWISE_BEZIER_KNOTS.);
#34 = CARTESIAN_POINT('',(-197.7442806137,-181.4905671132,
    19.654610700255));
#35 = CARTESIAN_POINT('',(-197.7442806137,-181.4905671132,0.));
#36 = ORIENTED_EDGE('',*,*,#37,.F.);
#37 = EDGE_CURVE('',#38,#31,#40,.T.);
#38 = VERTEX_POINT('',#39);
#39 = CARTESIAN_POINT('',(-197.7442806137,172.29242549133,
    19.654610700255));
#40 = B_SPLINE_CURVE_WITH_KNOTS('',1,(#41,#42),.UNSPECIFIED.,.F.,.F.,(2,
    2),(-270.,-0.),.PIECEWISE_BEZIER_KNOTS.);
#41 = CARTESIAN_POINT('',(-197.7442806137,172.29242549133,
    19.654610700255));
#42 = CARTESIAN_POINT('',(-197.7442806137,-181.4905671132,
    19.654610700255));
#43 = ORIENTED_EDGE('',*,*,#44,.T.);
#44 = EDGE_CURVE('',#38,#22,#45,.T.);
#45 = B_SPLINE_CURVE_WITH_KNOTS('',1,(#46,#47),.UNSPECIFIED.,.F.,.F.,(2,
    2),(-0.,15.),.PIECEWISE_BEZIER_KNOTS.);
#46 = CARTESIAN_POINT('',(-197.7442806137,172.29242549133,
    19.654610700255));
#47 = CARTESIAN_POINT('',(-197.7442806137,172.29242549133,0.));
#48 = B_SPLINE_SURFACE_WITH_KNOTS('',1,1,(
    (#49,#50)
    ,(#51,#52
  )),.UNSPECIFIED.,.F.,.F.,.F.,(2,2),(2,2),(0.,15.),(0.,270.),
  .PIECEWISE_BEZIER_KNOTS.);
#49 = CARTESIAN_POINT('',(-197.7442806137,-181.4905671132,
    19.654610700255));
#50 = CARTESIAN_POINT('',(-197.7442806137,172.29242549133,
    19.654610700255));
#51 = CARTESIAN_POINT('',(-197.7442806137,-181.4905671132,0.));
#52 = CARTESIAN_POINT('',(-197.7442806137,172.29242549133,0.));
#53 = ADVANCED_FACE('',(#54),#76,.F.);
#54 = FACE_BOUND('',#55,.T.);
#55 = EDGE_LOOP('',(#56,#63,#70,#75));
#56 = ORIENTED_EDGE('',*,*,#57,.T.);
#57 = EDGE_CURVE('',#24,#58,#60,.T.);
#58 = VERTEX_POINT('',#59);
#59 = CARTESIAN_POINT('',(300.17252379267,-181.4905671132,0.));
#60 = B_SPLINE_CURVE_WITH_KNOTS('',1,(#61,#62),.UNSPECIFIED.,.F.,.F.,(2,
    2),(0.,380.),.PIECEWISE_BEZIER_KNOTS.);
#61 = CARTESIAN_POINT('',(-197.7442806137,-181.4905671132,0.));
#62 = CARTESIAN_POINT('',(300.17252379267,-181.4905671132,0.));
#63 = ORIENTED_EDGE('',*,*,#64,.F.);
#64 = EDGE_CURVE('',#65,#58,#67,.T.);
#65 = VERTEX_POINT('',#66);
#66 = CARTESIAN_POINT('',(300.17252379267,-181.4905671132,
    19.654610700255));
#67 = B_SPLINE_CURVE_WITH_KNOTS('',1,(#68,#69),.UNSPECIFIED.,.F.,.F.,(2,
    2),(-0.,15.),.PIECEWISE_BEZIER_KNOTS.);
#68 = CARTESIAN_POINT('',(300.17252379267,-181.4905671132,
    19.654610700255));
#69 = CARTESIAN_POINT('',(300.17252379267,-181.4905671132,0.));
#70 = ORIENTED_EDGE('',*,*,#71,.F.);
#71 = EDGE_CURVE('',#31,#65,#72,.T.);
#72 = B_SPLINE_CURVE_WITH_KNOTS('',1,(#73,#74),.UNSPECIFIED.,.F.,.F.,(2,
    2),(0.,380.),.PIECEWISE_BEZIER_KNOTS.);
#73 = CARTESIAN_POINT('',(-197.7442806137,-181.4905671132,
    19.654610700255));
#74 = CARTESIAN_POINT('',(300.17252379267,-181.4905671132,
    19.654610700255));
#75 = ORIENTED_EDGE('',*,*,#30,.T.);
#76 = B_SPLINE_SURFACE_WITH_KNOTS('',1,1,(
    (#77,#78)
    ,(#79,#80
    )),.UNSPECIFIED.,.F.,.F.,.F.,(2,2),(2,2),(-380.,0.),(-15.,0.),
  .PIECEWISE_BEZIER_KNOTS.);
#77 = CARTESIAN_POINT('',(300.17252379267,-181.4905671132,0.));
#78 = CARTESIAN_POINT('',(300.17252379267,-181.4905671132,
    19.654610700255));
#79 = CARTESIAN_POINT('',(-197.7442806137,-181.4905671132,0.));
#80 = CARTESIAN_POINT('',(-197.7442806137,-181.4905671132,
    19.654610700255));
#81 = ADVANCED_FACE('',(#82),#104,.F.);
#82 = FACE_BOUND('',#83,.T.);
#83 = EDGE_LOOP('',(#84,#91,#98,#103));
#84 = ORIENTED_EDGE('',*,*,#85,.T.);
#85 = EDGE_CURVE('',#58,#86,#88,.T.);
#86 = VERTEX_POINT('',#87);
#87 = CARTESIAN_POINT('',(300.17252379267,172.29242549133,0.));
#88 = B_SPLINE_CURVE_WITH_KNOTS('',1,(#89,#90),.UNSPECIFIED.,.F.,.F.,(2,
    2),(0.,270.),.PIECEWISE_BEZIER_KNOTS.);
#89 = CARTESIAN_POINT('',(300.17252379267,-181.4905671132,0.));
#90 = CARTESIAN_POINT('',(300.17252379267,172.29242549133,0.));
#91 = ORIENTED_EDGE('',*,*,#92,.F.);
#92 = EDGE_CURVE('',#93,#86,#95,.T.);
#93 = VERTEX_POINT('',#94);
#94 = CARTESIAN_POINT('',(300.17252379267,172.29242549133,
    19.654610700255));
#95 = B_SPLINE_CURVE_WITH_KNOTS('',1,(#96,#97),.UNSPECIFIED.,.F.,.F.,(2,
    2),(-0.,15.),.PIECEWISE_BEZIER_KNOTS.);
#96 = CARTESIAN_POINT('',(300.17252379267,172.29242549133,
    19.654610700255));
#97 = CARTESIAN_POINT('',(300.17252379267,172.29242549133,0.));
#98 = ORIENTED_EDGE('',*,*,#99,.F.);
#99 = EDGE_CURVE('',#65,#93,#100,.T.);
#100 = B_SPLINE_CURVE_WITH_KNOTS('',1,(#101,#102),.UNSPECIFIED.,.F.,.F.,
  (2,2),(0.,270.),.PIECEWISE_BEZIER_KNOTS.);
#101 = CARTESIAN_POINT('',(300.17252379267,-181.4905671132,
    19.654610700255));
#102 = CARTESIAN_POINT('',(300.17252379267,172.29242549133,
    19.654610700255));
#103 = ORIENTED_EDGE('',*,*,#64,.T.);
#104 = B_SPLINE_SURFACE_WITH_KNOTS('',1,1,(
    (#105,#106)
    ,(#107,#108
    )),.UNSPECIFIED.,.F.,.F.,.F.,(2,2),(2,2),(-15.,0.),(0.,270.),
  .PIECEWISE_BEZIER_KNOTS.);
#105 = CARTESIAN_POINT('',(300.17252379267,-181.4905671132,0.));
#106 = CARTESIAN_POINT('',(300.17252379267,172.29242549133,0.));
#107 = CARTESIAN_POINT('',(300.17252379267,-181.4905671132,
    19.654610700255));
#108 = CARTESIAN_POINT('',(300.17252379267,172.29242549133,
    19.654610700255));
#109 = ADVANCED_FACE('',(#110),#124,.F.);
#110 = FACE_BOUND('',#111,.T.);
#111 = EDGE_LOOP('',(#112,#117,#118,#123));
#112 = ORIENTED_EDGE('',*,*,#113,.T.);
#113 = EDGE_CURVE('',#86,#22,#114,.T.);
#114 = B_SPLINE_CURVE_WITH_KNOTS('',1,(#115,#116),.UNSPECIFIED.,.F.,.F.,
  (2,2),(-380.,-0.),.PIECEWISE_BEZIER_KNOTS.);
#115 = CARTESIAN_POINT('',(300.17252379267,172.29242549133,0.));
#116 = CARTESIAN_POINT('',(-197.7442806137,172.29242549133,0.));
#117 = ORIENTED_EDGE('',*,*,#44,.F.);
#118 = ORIENTED_EDGE('',*,*,#119,.F.);
#119 = EDGE_CURVE('',#93,#38,#120,.T.);
#120 = B_SPLINE_CURVE_WITH_KNOTS('',1,(#121,#122),.UNSPECIFIED.,.F.,.F.,
  (2,2),(-380.,-0.),.PIECEWISE_BEZIER_KNOTS.);
#121 = CARTESIAN_POINT('',(300.17252379267,172.29242549133,
    19.654610700255));
#122 = CARTESIAN_POINT('',(-197.7442806137,172.29242549133,
    19.654610700255));
#123 = ORIENTED_EDGE('',*,*,#92,.T.);
#124 = B_SPLINE_SURFACE_WITH_KNOTS('',1,1,(
    (#125,#126)
    ,(#127,#128
    )),.UNSPECIFIED.,.F.,.F.,.F.,(2,2),(2,2),(0.,15.),(0.,380.),
  .PIECEWISE_BEZIER_KNOTS.);
#125 = CARTESIAN_POINT('',(-197.7442806137,172.29242549133,
    19.654610700255));
#126 = CARTESIAN_POINT('',(300.17252379267,172.29242549133,
    19.654610700255));
#127 = CARTESIAN_POINT('',(-197.7442806137,172.29242549133,0.));
#128 = CARTESIAN_POINT('',(300.17252379267,172.29242549133,0.));
#129 = ADVANCED_FACE('',(#130),#136,.F.);
#130 = FACE_BOUND('',#131,.T.);
#131 = EDGE_LOOP('',(#132,#133,#134,#135));
#132 = ORIENTED_EDGE('',*,*,#37,.T.);
#133 = ORIENTED_EDGE('',*,*,#71,.T.);
#134 = ORIENTED_EDGE('',*,*,#99,.T.);
#135 = ORIENTED_EDGE('',*,*,#119,.T.);
#136 = B_SPLINE_SURFACE_WITH_KNOTS('',1,1,(
    (#137,#138)
    ,(#139,#140
    )),.UNSPECIFIED.,.F.,.F.,.F.,(2,2),(2,2),(-229.0855782166,
    150.91442178339),(-138.5099175056,131.4900824943),
  .PIECEWISE_BEZIER_KNOTS.);
#137 = CARTESIAN_POINT('',(300.17252379267,-181.4905671132,
    19.654610700255));
#138 = CARTESIAN_POINT('',(300.17252379267,172.29242549133,
    19.654610700255));
#139 = CARTESIAN_POINT('',(-197.7442806137,-181.4905671132,
    19.654610700255));
#140 = CARTESIAN_POINT('',(-197.7442806137,172.29242549133,
    19.654610700255));
#141 = ADVANCED_FACE('',(#142),#148,.T.);
#142 = FACE_BOUND('',#143,.T.);
#143 = EDGE_LOOP('',(#144,#145,#146,#147));
#144 = ORIENTED_EDGE('',*,*,#21,.F.);
#145 = ORIENTED_EDGE('',*,*,#113,.F.);
#146 = ORIENTED_EDGE('',*,*,#85,.F.);
#147 = ORIENTED_EDGE('',*,*,#57,.F.);
#148 = B_SPLINE_SURFACE_WITH_KNOTS('',1,1,(
    (#149,#150)
    ,(#151,#152
    )),.UNSPECIFIED.,.F.,.F.,.F.,(2,2),(2,2),(-229.0855782166,
    150.91442178339),(-138.5099175056,131.4900824943),
  .PIECEWISE_BEZIER_KNOTS.);
#149 = CARTESIAN_POINT('',(300.17252379267,-181.4905671132,0.));
#150 = CARTESIAN_POINT('',(300.17252379267,172.29242549133,0.));
#151 = CARTESIAN_POINT('',(-197.7442806137,-181.4905671132,0.));
#152 = CARTESIAN_POINT('',(-197.7442806137,172.29242549133,0.));
#153 = ( GEOMETRIC_REPRESENTATION_CONTEXT(3) 
GLOBAL_UNCERTAINTY_ASSIGNED_CONTEXT((#157)) GLOBAL_UNIT_ASSIGNED_CONTEXT
((#154,#155,#156)) REPRESENTATION_CONTEXT('Context #1',
  '3D Context with UNIT and UNCERTAINTY') );
#154 = ( LENGTH_UNIT() NAMED_UNIT(*) SI_UNIT(.MILLI.,.METRE.) );
#155 = ( NAMED_UNIT(*) PLANE_ANGLE_UNIT() SI_UNIT($,.RADIAN.) );
#156 = ( NAMED_UNIT(*) SI_UNIT($,.STERADIAN.) SOLID_ANGLE_UNIT() );
#157 = UNCERTAINTY_MEASURE_WITH_UNIT(LENGTH_MEASURE(1.E-07),#154,
  'distance_accuracy_value','confusion accuracy');
#158 = PRODUCT_RELATED_PRODUCT_CATEGORY('part',$,(#7));
ENDSEC;
END-ISO-10303-21;
