ISO-10303-21;
HEADER;
FILE_DESCRIPTION(('FreeCAD Model'),'2;1');
FILE_NAME('Open CASCADE Shape Model','2025-05-09T16:11:08',('FreeCAD'),(
    'FreeCAD'),'Open CASCADE STEP processor 7.6','FreeCAD','Unknown');
FILE_SCHEMA(('AUTOMOTIVE_DESIGN { 1 0 10303 214 1 1 1 1 }'));
ENDSEC;
DATA;
#1 = APPLICATION_PROTOCOL_DEFINITION('international standard',
  'automotive_design',2000,#2);
#2 = APPLICATION_CONTEXT(
  'core data for automotive mechanical design processes');
#3 = SHAPE_DEFINITION_REPRESENTATION(#4,#10);
#4 = PRODUCT_DEFINITION_SHAPE('','',#5);
#5 = PRODUCT_DEFINITION('design','',#6,#9);
#6 = PRODUCT_DEFINITION_FORMATION('','',#7);
#7 = PRODUCT('Open CASCADE STEP translator 7.6 1',
  'Open CASCADE STEP translator 7.6 1','',(#8));
#8 = PRODUCT_CONTEXT('',#2,'mechanical');
#9 = PRODUCT_DEFINITION_CONTEXT('part definition',#2,'design');
#10 = ADVANCED_BREP_SHAPE_REPRESENTATION('',(#11,#15),#353);
#11 = AXIS2_PLACEMENT_3D('',#12,#13,#14);
#12 = CARTESIAN_POINT('',(0.,0.,0.));
#13 = DIRECTION('',(0.,0.,1.));
#14 = DIRECTION('',(1.,0.,-0.));
#15 = MANIFOLD_SOLID_BREP('',#16);
#16 = CLOSED_SHELL('',(#17,#69,#110,#163,#204,#257,#277,#293,#309,#325,
    #341));
#17 = ADVANCED_FACE('',(#18),#50,.F.);
#18 = FACE_BOUND('',#19,.F.);
#19 = EDGE_LOOP('',(#20,#29,#39,#40));
#20 = ORIENTED_EDGE('',*,*,#21,.T.);
#21 = EDGE_CURVE('',#22,#24,#26,.T.);
#22 = VERTEX_POINT('',#23);
#23 = CARTESIAN_POINT('',(-12.70516832637,-7.329904803676,
    -1.555934372352E-15));
#24 = VERTEX_POINT('',#25);
#25 = CARTESIAN_POINT('',(-11.72784768588,-6.352584163185,
    1.43624711294E-15));
#26 = B_SPLINE_CURVE_WITH_KNOTS('',1,(#27,#28),.UNSPECIFIED.,.F.,.F.,(2,
    2),(-0.707106781187,0.707106781187),.PIECEWISE_BEZIER_KNOTS.);
#27 = CARTESIAN_POINT('',(-12.70516832637,-7.329904803676,
    -1.555934372352E-15));
#28 = CARTESIAN_POINT('',(-11.72784768588,-6.352584163185,
    -1.43624711294E-15));
#29 = ORIENTED_EDGE('',*,*,#30,.F.);
#30 = EDGE_CURVE('',#24,#24,#31,.T.);
#31 = ( BOUNDED_CURVE() B_SPLINE_CURVE(2,(#32,#33,#34,#35,#36,#37,#38),
.UNSPECIFIED.,.T.,.F.) B_SPLINE_CURVE_WITH_KNOTS((3,2,2,3),(
    3.14159265359,5.235987755983,7.330382858376,9.424777960769),
.PIECEWISE_BEZIER_KNOTS.) CURVE() GEOMETRIC_REPRESENTATION_ITEM() 
RATIONAL_B_SPLINE_CURVE((1.,0.5,1.,0.5,1.,0.5,1.)) REPRESENTATION_ITEM(
  '') );
#32 = CARTESIAN_POINT('',(-11.72784768588,-6.352584163185,
    -1.43624711294E-15));
#33 = CARTESIAN_POINT('',(-11.72784768588,-6.352584163185,
    20.313228055375));
#34 = CARTESIAN_POINT('',(5.86392384294,-6.352584163185,10.156614027687)
  );
#35 = CARTESIAN_POINT('',(23.455695371762,-6.352584163185,
    2.657783090002E-14));
#36 = CARTESIAN_POINT('',(5.86392384294,-6.352584163185,-10.15661402768)
  );
#37 = CARTESIAN_POINT('',(-11.72784768588,-6.352584163185,
    -20.31322805537));
#38 = CARTESIAN_POINT('',(-11.72784768588,-6.352584163185,
    -2.514158378708E-14));
#39 = ORIENTED_EDGE('',*,*,#21,.F.);
#40 = ORIENTED_EDGE('',*,*,#41,.F.);
#41 = EDGE_CURVE('',#22,#22,#42,.T.);
#42 = ( BOUNDED_CURVE() B_SPLINE_CURVE(2,(#43,#44,#45,#46,#47,#48,#49),
.UNSPECIFIED.,.T.,.F.) B_SPLINE_CURVE_WITH_KNOTS((3,2,2,3),(
    3.14159265359,5.235987755983,7.330382858376,9.424777960769),
.PIECEWISE_BEZIER_KNOTS.) CURVE() GEOMETRIC_REPRESENTATION_ITEM() 
RATIONAL_B_SPLINE_CURVE((1.,0.5,1.,0.5,1.,0.5,1.)) REPRESENTATION_ITEM(
  '') );
#43 = CARTESIAN_POINT('',(-12.70516832637,-7.329904803676,
    1.555934372352E-15));
#44 = CARTESIAN_POINT('',(-12.70516832637,-7.329904803676,
    -22.00599705998));
#45 = CARTESIAN_POINT('',(6.352584163185,-7.329904803676,-11.00299852999
    ));
#46 = CARTESIAN_POINT('',(25.410336652742,-7.329904803676,
    -2.879265014169E-14));
#47 = CARTESIAN_POINT('',(6.352584163186,-7.329904803676,11.002998529995
    ));
#48 = CARTESIAN_POINT('',(-12.70516832637,-7.329904803676,
    22.005997059989));
#49 = CARTESIAN_POINT('',(-12.70516832637,-7.329904803676,
    2.723671576934E-14));
#50 = ( BOUNDED_SURFACE() B_SPLINE_SURFACE(2,1,(
    (#51,#52)
    ,(#53,#54)
    ,(#55,#56)
    ,(#57,#58)
    ,(#59,#60)
    ,(#61,#62)
    ,(#63,#64)
    ,(#65,#66)
,(#67,#68
    )),.UNSPECIFIED.,.T.,.F.,.F.) B_SPLINE_SURFACE_WITH_KNOTS((3,2,2,2,3
    ),(2,2),(3.14159265359,4.188790204786,6.28318530718,8.377580409573,
    9.424777960769),(-0.707106781187,0.707106781187),.UNSPECIFIED.) 
GEOMETRIC_REPRESENTATION_ITEM() RATIONAL_B_SPLINE_SURFACE((
    (0.75,0.75)
    ,(0.75,0.75)
    ,(1.,1.)
    ,(0.5,0.5)
    ,(1.,1.)
    ,(0.5,0.5)
    ,(1.,1.)
    ,(0.75,0.75)
,(0.75,0.75))) REPRESENTATION_ITEM('') SURFACE() );
#51 = CARTESIAN_POINT('',(-11.72784768588,-6.352584163185,0.));
#52 = CARTESIAN_POINT('',(-12.70516832637,-7.329904803676,
    5.786900680072E-16));
#53 = CARTESIAN_POINT('',(-11.72784768588,-6.352584163185,
    -6.771076018458));
#54 = CARTESIAN_POINT('',(-12.70516832637,-7.329904803676,-7.33533235333
    ));
#55 = CARTESIAN_POINT('',(-5.86392384294,-6.352584163185,-10.15661402768
    ));
#56 = CARTESIAN_POINT('',(-6.352584163185,-7.329904803676,
    -11.00299852999));
#57 = CARTESIAN_POINT('',(11.727847685881,-6.352584163185,
    -20.31322805537));
#58 = CARTESIAN_POINT('',(12.705168326371,-7.329904803676,
    -22.00599705998));
#59 = CARTESIAN_POINT('',(11.727847685881,-6.352584163185,0.));
#60 = CARTESIAN_POINT('',(12.705168326371,-7.329904803676,0.));
#61 = CARTESIAN_POINT('',(11.727847685881,-6.352584163185,
    20.313228055375));
#62 = CARTESIAN_POINT('',(12.705168326371,-7.329904803676,
    22.005997059989));
#63 = CARTESIAN_POINT('',(-5.86392384294,-6.352584163185,10.156614027687
    ));
#64 = CARTESIAN_POINT('',(-6.352584163185,-7.329904803676,
    11.002998529995));
#65 = CARTESIAN_POINT('',(-11.72784768588,-6.352584163185,6.771076018458
    ));
#66 = CARTESIAN_POINT('',(-12.70516832637,-7.329904803676,7.33533235333)
  );
#67 = CARTESIAN_POINT('',(-11.72784768588,-6.352584163185,0.));
#68 = CARTESIAN_POINT('',(-12.70516832637,-7.329904803676,
    5.786900680072E-16));
#69 = ADVANCED_FACE('',(#70),#91,.F.);
#70 = FACE_BOUND('',#71,.F.);
#71 = EDGE_LOOP('',(#72,#79,#80,#81));
#72 = ORIENTED_EDGE('',*,*,#73,.T.);
#73 = EDGE_CURVE('',#74,#24,#76,.T.);
#74 = VERTEX_POINT('',#75);
#75 = CARTESIAN_POINT('',(-11.72784768588,6.352584163185,
    -1.43624711294E-15));
#76 = B_SPLINE_CURVE_WITH_KNOTS('',1,(#77,#78),.UNSPECIFIED.,.F.,.F.,(2,
    2),(-6.5,6.5),.PIECEWISE_BEZIER_KNOTS.);
#77 = CARTESIAN_POINT('',(-11.72784768588,6.352584163185,
    1.43624711294E-15));
#78 = CARTESIAN_POINT('',(-11.72784768588,-6.352584163185,
    1.43624711294E-15));
#79 = ORIENTED_EDGE('',*,*,#30,.T.);
#80 = ORIENTED_EDGE('',*,*,#73,.F.);
#81 = ORIENTED_EDGE('',*,*,#82,.T.);
#82 = EDGE_CURVE('',#74,#74,#83,.T.);
#83 = ( BOUNDED_CURVE() B_SPLINE_CURVE(2,(#84,#85,#86,#87,#88,#89,#90),
.UNSPECIFIED.,.T.,.F.) B_SPLINE_CURVE_WITH_KNOTS((3,2,2,3),(
    3.14159265359,5.235987755983,7.330382858376,9.424777960769),
.PIECEWISE_BEZIER_KNOTS.) CURVE() GEOMETRIC_REPRESENTATION_ITEM() 
RATIONAL_B_SPLINE_CURVE((1.,0.5,1.,0.5,1.,0.5,1.)) REPRESENTATION_ITEM(
  '') );
#84 = CARTESIAN_POINT('',(-11.72784768588,6.352584163185,
    1.43624711294E-15));
#85 = CARTESIAN_POINT('',(-11.72784768588,6.352584163185,-20.31322805537
    ));
#86 = CARTESIAN_POINT('',(5.86392384294,6.352584163185,-10.15661402768)
  );
#87 = CARTESIAN_POINT('',(23.455695371762,6.352584163185,
    -2.657783090002E-14));
#88 = CARTESIAN_POINT('',(5.86392384294,6.352584163185,10.156614027687)
  );
#89 = CARTESIAN_POINT('',(-11.72784768588,6.352584163185,20.313228055375
    ));
#90 = CARTESIAN_POINT('',(-11.72784768588,6.352584163185,
    2.514158378708E-14));
#91 = ( BOUNDED_SURFACE() B_SPLINE_SURFACE(2,1,(
    (#92,#93)
    ,(#94,#95)
    ,(#96,#97)
    ,(#98,#99)
    ,(#100,#101)
    ,(#102,#103)
    ,(#104,#105)
    ,(#106,#107)
,(#108,#109
    )),.UNSPECIFIED.,.T.,.F.,.F.) B_SPLINE_SURFACE_WITH_KNOTS((3,2,2,2,3
    ),(2,2),(-3.14159265359,-2.094395102393,0.,2.094395102393,
    3.14159265359),(-6.5,6.5),.UNSPECIFIED.) 
GEOMETRIC_REPRESENTATION_ITEM() RATIONAL_B_SPLINE_SURFACE((
    (0.75,0.75)
    ,(0.75,0.75)
    ,(1.,1.)
    ,(0.5,0.5)
    ,(1.,1.)
    ,(0.5,0.5)
    ,(1.,1.)
    ,(0.75,0.75)
,(0.75,0.75))) REPRESENTATION_ITEM('') SURFACE() );
#92 = CARTESIAN_POINT('',(-11.72784768588,-6.352584163185,0.));
#93 = CARTESIAN_POINT('',(-11.72784768588,6.352584163185,0.));
#94 = CARTESIAN_POINT('',(-11.72784768588,-6.352584163185,6.771076018458
    ));
#95 = CARTESIAN_POINT('',(-11.72784768588,6.352584163185,6.771076018458)
  );
#96 = CARTESIAN_POINT('',(-5.86392384294,-6.352584163185,10.156614027687
    ));
#97 = CARTESIAN_POINT('',(-5.86392384294,6.352584163185,10.156614027687)
  );
#98 = CARTESIAN_POINT('',(11.727847685881,-6.352584163185,
    20.313228055375));
#99 = CARTESIAN_POINT('',(11.727847685881,6.352584163185,20.313228055375
    ));
#100 = CARTESIAN_POINT('',(11.727847685881,-6.352584163185,0.));
#101 = CARTESIAN_POINT('',(11.727847685881,6.352584163185,0.));
#102 = CARTESIAN_POINT('',(11.727847685881,-6.352584163185,
    -20.31322805537));
#103 = CARTESIAN_POINT('',(11.727847685881,6.352584163185,
    -20.31322805537));
#104 = CARTESIAN_POINT('',(-5.86392384294,-6.352584163185,
    -10.15661402768));
#105 = CARTESIAN_POINT('',(-5.86392384294,6.352584163185,-10.15661402768
    ));
#106 = CARTESIAN_POINT('',(-11.72784768588,-6.352584163185,
    -6.771076018458));
#107 = CARTESIAN_POINT('',(-11.72784768588,6.352584163185,
    -6.771076018458));
#108 = CARTESIAN_POINT('',(-11.72784768588,-6.352584163185,0.));
#109 = CARTESIAN_POINT('',(-11.72784768588,6.352584163185,0.));
#110 = ADVANCED_FACE('',(#111,#155),#158,.F.);
#111 = FACE_BOUND('',#112,.T.);
#112 = EDGE_LOOP('',(#113,#122,#129,#136,#143,#150));
#113 = ORIENTED_EDGE('',*,*,#114,.T.);
#114 = EDGE_CURVE('',#115,#117,#119,.T.);
#115 = VERTEX_POINT('',#116);
#116 = CARTESIAN_POINT('',(17.591771528821,-7.329904803676,
    -10.15661402768));
#117 = VERTEX_POINT('',#118);
#118 = CARTESIAN_POINT('',(17.591771528821,-7.329904803676,
    10.156614027687));
#119 = B_SPLINE_CURVE_WITH_KNOTS('',1,(#120,#121),.UNSPECIFIED.,.F.,.F.,
  (2,2),(-20.78460969082,0.),.PIECEWISE_BEZIER_KNOTS.);
#120 = CARTESIAN_POINT('',(17.591771528821,-7.329904803676,
    -10.15661402768));
#121 = CARTESIAN_POINT('',(17.591771528821,-7.329904803676,
    10.156614027687));
#122 = ORIENTED_EDGE('',*,*,#123,.T.);
#123 = EDGE_CURVE('',#117,#124,#126,.T.);
#124 = VERTEX_POINT('',#125);
#125 = CARTESIAN_POINT('',(1.736070204022E-14,-7.329904803676,
    20.313228055375));
#126 = B_SPLINE_CURVE_WITH_KNOTS('',1,(#127,#128),.UNSPECIFIED.,.F.,.F.,
  (2,2),(-20.78460969082,0.),.PIECEWISE_BEZIER_KNOTS.);
#127 = CARTESIAN_POINT('',(17.591771528821,-7.329904803676,
    10.156614027687));
#128 = CARTESIAN_POINT('',(1.736070204022E-14,-7.329904803676,
    20.313228055375));
#129 = ORIENTED_EDGE('',*,*,#130,.T.);
#130 = EDGE_CURVE('',#124,#131,#133,.T.);
#131 = VERTEX_POINT('',#132);
#132 = CARTESIAN_POINT('',(-17.59177152882,-7.329904803676,
    10.156614027687));
#133 = B_SPLINE_CURVE_WITH_KNOTS('',1,(#134,#135),.UNSPECIFIED.,.F.,.F.,
  (2,2),(-20.78460969082,0.),.PIECEWISE_BEZIER_KNOTS.);
#134 = CARTESIAN_POINT('',(-1.388856163217E-14,-7.329904803676,
    20.313228055375));
#135 = CARTESIAN_POINT('',(-17.59177152882,-7.329904803676,
    10.156614027687));
#136 = ORIENTED_EDGE('',*,*,#137,.T.);
#137 = EDGE_CURVE('',#131,#138,#140,.T.);
#138 = VERTEX_POINT('',#139);
#139 = CARTESIAN_POINT('',(-17.59177152882,-7.329904803676,
    -10.15661402768));
#140 = B_SPLINE_CURVE_WITH_KNOTS('',1,(#141,#142),.UNSPECIFIED.,.F.,.F.,
  (2,2),(-20.78460969082,-9.947598300641E-14),.PIECEWISE_BEZIER_KNOTS.);
#141 = CARTESIAN_POINT('',(-17.59177152882,-7.329904803676,
    10.156614027687));
#142 = CARTESIAN_POINT('',(-17.59177152882,-7.329904803676,
    -10.15661402768));
#143 = ORIENTED_EDGE('',*,*,#144,.T.);
#144 = EDGE_CURVE('',#138,#145,#147,.T.);
#145 = VERTEX_POINT('',#146);
#146 = CARTESIAN_POINT('',(-6.510263265081E-15,-7.329904803676,
    -20.31322805537));
#147 = B_SPLINE_CURVE_WITH_KNOTS('',1,(#148,#149),.UNSPECIFIED.,.F.,.F.,
  (2,2),(-20.78460969082,0.),.PIECEWISE_BEZIER_KNOTS.);
#148 = CARTESIAN_POINT('',(-17.59177152882,-7.329904803676,
    -10.15661402768));
#149 = CARTESIAN_POINT('',(-6.510263265081E-15,-7.329904803676,
    -20.31322805537));
#150 = ORIENTED_EDGE('',*,*,#151,.T.);
#151 = EDGE_CURVE('',#145,#115,#152,.T.);
#152 = B_SPLINE_CURVE_WITH_KNOTS('',1,(#153,#154),.UNSPECIFIED.,.F.,.F.,
  (2,2),(-20.78460969082,0.),.PIECEWISE_BEZIER_KNOTS.);
#153 = CARTESIAN_POINT('',(2.083284244826E-14,-7.329904803676,
    -20.31322805537));
#154 = CARTESIAN_POINT('',(17.591771528821,-7.329904803676,
    -10.15661402768));
#155 = FACE_BOUND('',#156,.T.);
#156 = EDGE_LOOP('',(#157));
#157 = ORIENTED_EDGE('',*,*,#41,.F.);
#158 = B_SPLINE_SURFACE_WITH_KNOTS('',1,1,(
    (#159,#160)
    ,(#161,#162
    )),.UNSPECIFIED.,.F.,.F.,.F.,(2,2),(2,2),(-20.78460969082,
    20.784609690827),(-18.,18.),.PIECEWISE_BEZIER_KNOTS.);
#159 = CARTESIAN_POINT('',(-17.59177152882,-7.329904803676,
    -20.31322805537));
#160 = CARTESIAN_POINT('',(17.591771528821,-7.329904803676,
    -20.31322805537));
#161 = CARTESIAN_POINT('',(-17.59177152882,-7.329904803676,
    20.313228055375));
#162 = CARTESIAN_POINT('',(17.591771528821,-7.329904803676,
    20.313228055375));
#163 = ADVANCED_FACE('',(#164),#185,.F.);
#164 = FACE_BOUND('',#165,.F.);
#165 = EDGE_LOOP('',(#166,#173,#174,#175));
#166 = ORIENTED_EDGE('',*,*,#167,.T.);
#167 = EDGE_CURVE('',#168,#74,#170,.T.);
#168 = VERTEX_POINT('',#169);
#169 = CARTESIAN_POINT('',(-12.70516832637,7.329904803676,
    1.555934372352E-15));
#170 = B_SPLINE_CURVE_WITH_KNOTS('',1,(#171,#172),.UNSPECIFIED.,.F.,.F.,
  (2,2),(-0.707106781187,0.707106781187),.PIECEWISE_BEZIER_KNOTS.);
#171 = CARTESIAN_POINT('',(-12.70516832637,7.329904803676,
    1.555934372352E-15));
#172 = CARTESIAN_POINT('',(-11.72784768588,6.352584163185,
    1.43624711294E-15));
#173 = ORIENTED_EDGE('',*,*,#82,.F.);
#174 = ORIENTED_EDGE('',*,*,#167,.F.);
#175 = ORIENTED_EDGE('',*,*,#176,.F.);
#176 = EDGE_CURVE('',#168,#168,#177,.T.);
#177 = ( BOUNDED_CURVE() B_SPLINE_CURVE(2,(#178,#179,#180,#181,#182,#183
,#184),.UNSPECIFIED.,.T.,.F.) B_SPLINE_CURVE_WITH_KNOTS((3,2,2,3),(
    3.14159265359,5.235987755983,7.330382858376,9.424777960769),
.PIECEWISE_BEZIER_KNOTS.) CURVE() GEOMETRIC_REPRESENTATION_ITEM() 
RATIONAL_B_SPLINE_CURVE((1.,0.5,1.,0.5,1.,0.5,1.)) REPRESENTATION_ITEM(
  '') );
#178 = CARTESIAN_POINT('',(-12.70516832637,7.329904803676,
    -1.555934372352E-15));
#179 = CARTESIAN_POINT('',(-12.70516832637,7.329904803676,
    22.005997059989));
#180 = CARTESIAN_POINT('',(6.352584163185,7.329904803676,11.002998529995
    ));
#181 = CARTESIAN_POINT('',(25.410336652742,7.329904803676,
    2.879265014169E-14));
#182 = CARTESIAN_POINT('',(6.352584163186,7.329904803676,-11.00299852999
    ));
#183 = CARTESIAN_POINT('',(-12.70516832637,7.329904803676,
    -22.00599705998));
#184 = CARTESIAN_POINT('',(-12.70516832637,7.329904803676,
    -2.723671576934E-14));
#185 = ( BOUNDED_SURFACE() B_SPLINE_SURFACE(2,1,(
    (#186,#187)
    ,(#188,#189)
    ,(#190,#191)
    ,(#192,#193)
    ,(#194,#195)
    ,(#196,#197)
    ,(#198,#199)
    ,(#200,#201)
,(#202,#203
    )),.UNSPECIFIED.,.T.,.F.,.F.) B_SPLINE_SURFACE_WITH_KNOTS((3,2,2,2,3
    ),(2,2),(3.14159265359,4.188790204786,6.28318530718,8.377580409573,
    9.424777960769),(-0.707106781187,0.707106781187),.UNSPECIFIED.) 
GEOMETRIC_REPRESENTATION_ITEM() RATIONAL_B_SPLINE_SURFACE((
    (0.75,0.75)
    ,(0.75,0.75)
    ,(1.,1.)
    ,(0.5,0.5)
    ,(1.,1.)
    ,(0.5,0.5)
    ,(1.,1.)
    ,(0.75,0.75)
,(0.75,0.75))) REPRESENTATION_ITEM('') SURFACE() );
#186 = CARTESIAN_POINT('',(-11.72784768588,6.352584163185,0.));
#187 = CARTESIAN_POINT('',(-12.70516832637,7.329904803676,
    -5.786900680072E-16));
#188 = CARTESIAN_POINT('',(-11.72784768588,6.352584163185,6.771076018458
    ));
#189 = CARTESIAN_POINT('',(-12.70516832637,7.329904803676,7.33533235333)
  );
#190 = CARTESIAN_POINT('',(-5.86392384294,6.352584163185,10.156614027687
    ));
#191 = CARTESIAN_POINT('',(-6.352584163185,7.329904803676,
    11.002998529995));
#192 = CARTESIAN_POINT('',(11.727847685881,6.352584163185,
    20.313228055375));
#193 = CARTESIAN_POINT('',(12.705168326371,7.329904803676,
    22.005997059989));
#194 = CARTESIAN_POINT('',(11.727847685881,6.352584163185,0.));
#195 = CARTESIAN_POINT('',(12.705168326371,7.329904803676,0.));
#196 = CARTESIAN_POINT('',(11.727847685881,6.352584163185,
    -20.31322805537));
#197 = CARTESIAN_POINT('',(12.705168326371,7.329904803676,
    -22.00599705998));
#198 = CARTESIAN_POINT('',(-5.86392384294,6.352584163185,-10.15661402768
    ));
#199 = CARTESIAN_POINT('',(-6.352584163185,7.329904803676,
    -11.00299852999));
#200 = CARTESIAN_POINT('',(-11.72784768588,6.352584163185,
    -6.771076018458));
#201 = CARTESIAN_POINT('',(-12.70516832637,7.329904803676,-7.33533235333
    ));
#202 = CARTESIAN_POINT('',(-11.72784768588,6.352584163185,0.));
#203 = CARTESIAN_POINT('',(-12.70516832637,7.329904803676,
    -5.786900680072E-16));
#204 = ADVANCED_FACE('',(#205,#249),#252,.T.);
#205 = FACE_BOUND('',#206,.T.);
#206 = EDGE_LOOP('',(#207,#216,#223,#230,#237,#244));
#207 = ORIENTED_EDGE('',*,*,#208,.T.);
#208 = EDGE_CURVE('',#209,#211,#213,.T.);
#209 = VERTEX_POINT('',#210);
#210 = CARTESIAN_POINT('',(17.591771528821,7.329904803676,
    10.156614027687));
#211 = VERTEX_POINT('',#212);
#212 = CARTESIAN_POINT('',(17.591771528821,7.329904803676,
    -10.15661402768));
#213 = B_SPLINE_CURVE_WITH_KNOTS('',1,(#214,#215),.UNSPECIFIED.,.F.,.F.,
  (2,2),(0.,20.784609690827),.PIECEWISE_BEZIER_KNOTS.);
#214 = CARTESIAN_POINT('',(17.591771528821,7.329904803676,
    10.156614027687));
#215 = CARTESIAN_POINT('',(17.591771528821,7.329904803676,
    -10.15661402768));
#216 = ORIENTED_EDGE('',*,*,#217,.T.);
#217 = EDGE_CURVE('',#211,#218,#220,.T.);
#218 = VERTEX_POINT('',#219);
#219 = CARTESIAN_POINT('',(-6.510263265081E-15,7.329904803676,
    -20.31322805537));
#220 = B_SPLINE_CURVE_WITH_KNOTS('',1,(#221,#222),.UNSPECIFIED.,.F.,.F.,
  (2,2),(0.,20.784609690826),.PIECEWISE_BEZIER_KNOTS.);
#221 = CARTESIAN_POINT('',(17.591771528821,7.329904803676,
    -10.15661402768));
#222 = CARTESIAN_POINT('',(2.083284244826E-14,7.329904803676,
    -20.31322805537));
#223 = ORIENTED_EDGE('',*,*,#224,.T.);
#224 = EDGE_CURVE('',#218,#225,#227,.T.);
#225 = VERTEX_POINT('',#226);
#226 = CARTESIAN_POINT('',(-17.59177152882,7.329904803676,
    -10.15661402768));
#227 = B_SPLINE_CURVE_WITH_KNOTS('',1,(#228,#229),.UNSPECIFIED.,.F.,.F.,
  (2,2),(0.,20.784609690827),.PIECEWISE_BEZIER_KNOTS.);
#228 = CARTESIAN_POINT('',(-6.510263265081E-15,7.329904803676,
    -20.31322805537));
#229 = CARTESIAN_POINT('',(-17.59177152882,7.329904803676,
    -10.15661402768));
#230 = ORIENTED_EDGE('',*,*,#231,.T.);
#231 = EDGE_CURVE('',#225,#232,#234,.T.);
#232 = VERTEX_POINT('',#233);
#233 = CARTESIAN_POINT('',(-17.59177152882,7.329904803676,
    10.156614027687));
#234 = B_SPLINE_CURVE_WITH_KNOTS('',1,(#235,#236),.UNSPECIFIED.,.F.,.F.,
  (2,2),(9.947598300641E-14,20.784609690827),.PIECEWISE_BEZIER_KNOTS.);
#235 = CARTESIAN_POINT('',(-17.59177152882,7.329904803676,
    -10.15661402768));
#236 = CARTESIAN_POINT('',(-17.59177152882,7.329904803676,
    10.156614027687));
#237 = ORIENTED_EDGE('',*,*,#238,.T.);
#238 = EDGE_CURVE('',#232,#239,#241,.T.);
#239 = VERTEX_POINT('',#240);
#240 = CARTESIAN_POINT('',(1.736070204022E-14,7.329904803676,
    20.313228055375));
#241 = B_SPLINE_CURVE_WITH_KNOTS('',1,(#242,#243),.UNSPECIFIED.,.F.,.F.,
  (2,2),(0.,20.784609690827),.PIECEWISE_BEZIER_KNOTS.);
#242 = CARTESIAN_POINT('',(-17.59177152882,7.329904803676,
    10.156614027687));
#243 = CARTESIAN_POINT('',(-1.388856163217E-14,7.329904803676,
    20.313228055375));
#244 = ORIENTED_EDGE('',*,*,#245,.T.);
#245 = EDGE_CURVE('',#239,#209,#246,.T.);
#246 = B_SPLINE_CURVE_WITH_KNOTS('',1,(#247,#248),.UNSPECIFIED.,.F.,.F.,
  (2,2),(0.,20.784609690826),.PIECEWISE_BEZIER_KNOTS.);
#247 = CARTESIAN_POINT('',(1.736070204022E-14,7.329904803676,
    20.313228055375));
#248 = CARTESIAN_POINT('',(17.591771528821,7.329904803676,
    10.156614027687));
#249 = FACE_BOUND('',#250,.T.);
#250 = EDGE_LOOP('',(#251));
#251 = ORIENTED_EDGE('',*,*,#176,.F.);
#252 = B_SPLINE_SURFACE_WITH_KNOTS('',1,1,(
    (#253,#254)
    ,(#255,#256
    )),.UNSPECIFIED.,.F.,.F.,.F.,(2,2),(2,2),(-20.78460969082,
    20.784609690827),(-18.,18.),.PIECEWISE_BEZIER_KNOTS.);
#253 = CARTESIAN_POINT('',(-17.59177152882,7.329904803676,
    -20.31322805537));
#254 = CARTESIAN_POINT('',(17.591771528821,7.329904803676,
    -20.31322805537));
#255 = CARTESIAN_POINT('',(-17.59177152882,7.329904803676,
    20.313228055375));
#256 = CARTESIAN_POINT('',(17.591771528821,7.329904803676,
    20.313228055375));
#257 = ADVANCED_FACE('',(#258),#272,.T.);
#258 = FACE_BOUND('',#259,.T.);
#259 = EDGE_LOOP('',(#260,#265,#266,#271));
#260 = ORIENTED_EDGE('',*,*,#261,.F.);
#261 = EDGE_CURVE('',#209,#117,#262,.T.);
#262 = B_SPLINE_CURVE_WITH_KNOTS('',1,(#263,#264),.UNSPECIFIED.,.F.,.F.,
  (2,2),(-7.5,7.5),.PIECEWISE_BEZIER_KNOTS.);
#263 = CARTESIAN_POINT('',(17.591771528821,7.329904803676,
    10.156614027687));
#264 = CARTESIAN_POINT('',(17.591771528821,-7.329904803676,
    10.156614027687));
#265 = ORIENTED_EDGE('',*,*,#245,.F.);
#266 = ORIENTED_EDGE('',*,*,#267,.F.);
#267 = EDGE_CURVE('',#124,#239,#268,.T.);
#268 = B_SPLINE_CURVE_WITH_KNOTS('',1,(#269,#270),.UNSPECIFIED.,.F.,.F.,
  (2,2),(-7.5,7.5),.PIECEWISE_BEZIER_KNOTS.);
#269 = CARTESIAN_POINT('',(1.801477708734E-14,-7.329904803676,
    20.313228055375));
#270 = CARTESIAN_POINT('',(1.801477708734E-14,7.329904803676,
    20.313228055375));
#271 = ORIENTED_EDGE('',*,*,#123,.F.);
#272 = B_SPLINE_SURFACE_WITH_KNOTS('',1,1,(
    (#273,#274)
    ,(#275,#276
    )),.UNSPECIFIED.,.F.,.F.,.F.,(2,2),(2,2),(-3.260195688284E-16,
    20.784609690826),(-7.5,7.5),.PIECEWISE_BEZIER_KNOTS.);
#273 = CARTESIAN_POINT('',(1.757532041505E-14,-7.329904803676,
    20.313228055375));
#274 = CARTESIAN_POINT('',(1.757532041505E-14,7.329904803676,
    20.313228055375));
#275 = CARTESIAN_POINT('',(17.591771528821,-7.329904803676,
    10.156614027687));
#276 = CARTESIAN_POINT('',(17.591771528821,7.329904803676,
    10.156614027687));
#277 = ADVANCED_FACE('',(#278),#288,.T.);
#278 = FACE_BOUND('',#279,.T.);
#279 = EDGE_LOOP('',(#280,#281,#282,#287));
#280 = ORIENTED_EDGE('',*,*,#267,.T.);
#281 = ORIENTED_EDGE('',*,*,#238,.F.);
#282 = ORIENTED_EDGE('',*,*,#283,.F.);
#283 = EDGE_CURVE('',#131,#232,#284,.T.);
#284 = B_SPLINE_CURVE_WITH_KNOTS('',1,(#285,#286),.UNSPECIFIED.,.F.,.F.,
  (2,2),(-7.5,7.5),.PIECEWISE_BEZIER_KNOTS.);
#285 = CARTESIAN_POINT('',(-17.59177152882,-7.329904803676,
    10.156614027687));
#286 = CARTESIAN_POINT('',(-17.59177152882,7.329904803676,
    10.156614027687));
#287 = ORIENTED_EDGE('',*,*,#130,.F.);
#288 = B_SPLINE_SURFACE_WITH_KNOTS('',1,1,(
    (#289,#290)
    ,(#291,#292
    )),.UNSPECIFIED.,.F.,.F.,.F.,(2,2),(2,2),(0.,20.784609690827),(-7.5,
    7.5),.PIECEWISE_BEZIER_KNOTS.);
#289 = CARTESIAN_POINT('',(-17.59177152882,-7.329904803676,
    10.156614027687));
#290 = CARTESIAN_POINT('',(-17.59177152882,7.329904803676,
    10.156614027687));
#291 = CARTESIAN_POINT('',(-6.944280816086E-15,-7.329904803676,
    20.313228055375));
#292 = CARTESIAN_POINT('',(-6.944280816086E-15,7.329904803676,
    20.313228055375));
#293 = ADVANCED_FACE('',(#294),#304,.T.);
#294 = FACE_BOUND('',#295,.T.);
#295 = EDGE_LOOP('',(#296,#297,#298,#303));
#296 = ORIENTED_EDGE('',*,*,#283,.T.);
#297 = ORIENTED_EDGE('',*,*,#231,.F.);
#298 = ORIENTED_EDGE('',*,*,#299,.F.);
#299 = EDGE_CURVE('',#138,#225,#300,.T.);
#300 = B_SPLINE_CURVE_WITH_KNOTS('',1,(#301,#302),.UNSPECIFIED.,.F.,.F.,
  (2,2),(-7.5,7.5),.PIECEWISE_BEZIER_KNOTS.);
#301 = CARTESIAN_POINT('',(-17.59177152882,-7.329904803676,
    -10.15661402768));
#302 = CARTESIAN_POINT('',(-17.59177152882,7.329904803676,
    -10.15661402768));
#303 = ORIENTED_EDGE('',*,*,#137,.F.);
#304 = B_SPLINE_SURFACE_WITH_KNOTS('',1,1,(
    (#305,#306)
    ,(#307,#308
    )),.UNSPECIFIED.,.F.,.F.,.F.,(2,2),(2,2),(0.,20.784609690827),(-7.5,
    7.5),.PIECEWISE_BEZIER_KNOTS.);
#305 = CARTESIAN_POINT('',(-17.59177152882,-7.329904803676,
    -10.15661402768));
#306 = CARTESIAN_POINT('',(-17.59177152882,7.329904803676,
    -10.15661402768));
#307 = CARTESIAN_POINT('',(-17.59177152882,-7.329904803676,
    10.156614027687));
#308 = CARTESIAN_POINT('',(-17.59177152882,7.329904803676,
    10.156614027687));
#309 = ADVANCED_FACE('',(#310),#320,.T.);
#310 = FACE_BOUND('',#311,.T.);
#311 = EDGE_LOOP('',(#312,#313,#314,#319));
#312 = ORIENTED_EDGE('',*,*,#299,.T.);
#313 = ORIENTED_EDGE('',*,*,#224,.F.);
#314 = ORIENTED_EDGE('',*,*,#315,.F.);
#315 = EDGE_CURVE('',#145,#218,#316,.T.);
#316 = B_SPLINE_CURVE_WITH_KNOTS('',1,(#317,#318),.UNSPECIFIED.,.F.,.F.,
  (2,2),(-7.5,7.5),.PIECEWISE_BEZIER_KNOTS.);
#317 = CARTESIAN_POINT('',(-5.545609985983E-15,-7.329904803676,
    -20.31322805537));
#318 = CARTESIAN_POINT('',(-5.545609985983E-15,7.329904803676,
    -20.31322805537));
#319 = ORIENTED_EDGE('',*,*,#144,.F.);
#320 = B_SPLINE_SURFACE_WITH_KNOTS('',1,1,(
    (#321,#322)
    ,(#323,#324
    )),.UNSPECIFIED.,.F.,.F.,.F.,(2,2),(2,2),(-1.602751078302E-16,
    20.784609690827),(-7.5,7.5),.PIECEWISE_BEZIER_KNOTS.);
#321 = CARTESIAN_POINT('',(-5.651118938385E-15,-7.329904803676,
    -20.31322805537));
#322 = CARTESIAN_POINT('',(-5.651118938385E-15,7.329904803676,
    -20.31322805537));
#323 = CARTESIAN_POINT('',(-17.59177152882,-7.329904803676,
    -10.15661402768));
#324 = CARTESIAN_POINT('',(-17.59177152882,7.329904803676,
    -10.15661402768));
#325 = ADVANCED_FACE('',(#326),#336,.T.);
#326 = FACE_BOUND('',#327,.T.);
#327 = EDGE_LOOP('',(#328,#329,#330,#335));
#328 = ORIENTED_EDGE('',*,*,#315,.T.);
#329 = ORIENTED_EDGE('',*,*,#217,.F.);
#330 = ORIENTED_EDGE('',*,*,#331,.F.);
#331 = EDGE_CURVE('',#115,#211,#332,.T.);
#332 = B_SPLINE_CURVE_WITH_KNOTS('',1,(#333,#334),.UNSPECIFIED.,.F.,.F.,
  (2,2),(-7.5,7.5),.PIECEWISE_BEZIER_KNOTS.);
#333 = CARTESIAN_POINT('',(17.591771528821,-7.329904803676,
    -10.15661402768));
#334 = CARTESIAN_POINT('',(17.591771528821,7.329904803676,
    -10.15661402768));
#335 = ORIENTED_EDGE('',*,*,#151,.F.);
#336 = B_SPLINE_SURFACE_WITH_KNOTS('',1,1,(
    (#337,#338)
    ,(#339,#340
    )),.UNSPECIFIED.,.F.,.F.,.F.,(2,2),(2,2),(0.,20.784609690827),(-7.5,
    7.5),.PIECEWISE_BEZIER_KNOTS.);
#337 = CARTESIAN_POINT('',(17.591771528821,-7.329904803676,
    -10.15661402768));
#338 = CARTESIAN_POINT('',(17.591771528821,7.329904803676,
    -10.15661402768));
#339 = CARTESIAN_POINT('',(1.736070204022E-14,-7.329904803676,
    -20.31322805537));
#340 = CARTESIAN_POINT('',(1.736070204022E-14,7.329904803676,
    -20.31322805537));
#341 = ADVANCED_FACE('',(#342),#348,.T.);
#342 = FACE_BOUND('',#343,.T.);
#343 = EDGE_LOOP('',(#344,#345,#346,#347));
#344 = ORIENTED_EDGE('',*,*,#331,.T.);
#345 = ORIENTED_EDGE('',*,*,#208,.F.);
#346 = ORIENTED_EDGE('',*,*,#261,.T.);
#347 = ORIENTED_EDGE('',*,*,#114,.F.);
#348 = B_SPLINE_SURFACE_WITH_KNOTS('',1,1,(
    (#349,#350)
    ,(#351,#352
    )),.UNSPECIFIED.,.F.,.F.,.F.,(2,2),(2,2),(0.,20.784609690827),(-7.5,
    7.5),.PIECEWISE_BEZIER_KNOTS.);
#349 = CARTESIAN_POINT('',(17.591771528821,-7.329904803676,
    10.156614027687));
#350 = CARTESIAN_POINT('',(17.591771528821,7.329904803676,
    10.156614027687));
#351 = CARTESIAN_POINT('',(17.591771528821,-7.329904803676,
    -10.15661402768));
#352 = CARTESIAN_POINT('',(17.591771528821,7.329904803676,
    -10.15661402768));
#353 = ( GEOMETRIC_REPRESENTATION_CONTEXT(3) 
GLOBAL_UNCERTAINTY_ASSIGNED_CONTEXT((#357)) GLOBAL_UNIT_ASSIGNED_CONTEXT
((#354,#355,#356)) REPRESENTATION_CONTEXT('Context #1',
  '3D Context with UNIT and UNCERTAINTY') );
#354 = ( LENGTH_UNIT() NAMED_UNIT(*) SI_UNIT(.MILLI.,.METRE.) );
#355 = ( NAMED_UNIT(*) PLANE_ANGLE_UNIT() SI_UNIT($,.RADIAN.) );
#356 = ( NAMED_UNIT(*) SI_UNIT($,.STERADIAN.) SOLID_ANGLE_UNIT() );
#357 = UNCERTAINTY_MEASURE_WITH_UNIT(LENGTH_MEASURE(1.E-07),#354,
  'distance_accuracy_value','confusion accuracy');
#358 = PRODUCT_RELATED_PRODUCT_CATEGORY('part',$,(#7));
ENDSEC;
END-ISO-10303-21;
