ISO-10303-21;
HEADER;
FILE_DESCRIPTION(('FreeCAD Model'),'2;1');
FILE_NAME('Open CASCADE Shape Model','2025-05-09T15:26:06',('FreeCAD'),(
    'FreeCAD'),'Open CASCADE STEP processor 7.6','FreeCAD','Unknown');
FILE_SCHEMA(('AUTOMOTIVE_DESIGN { 1 0 10303 214 1 1 1 1 }'));
ENDSEC;
DATA;
#1 = APPLICATION_PROTOCOL_DEFINITION('international standard',
  'automotive_design',2000,#2);
#2 = APPLICATION_CONTEXT(
  'core data for automotive mechanical design processes');
#3 = SHAPE_DEFINITION_REPRESENTATION(#4,#10);
#4 = PRODUCT_DEFINITION_SHAPE('','',#5);
#5 = PRODUCT_DEFINITION('design','',#6,#9);
#6 = PRODUCT_DEFINITION_FORMATION('','',#7);
#7 = PRODUCT('Open CASCADE STEP translator 7.6 1',
  'Open CASCADE STEP translator 7.6 1','',(#8));
#8 = PRODUCT_CONTEXT('',#2,'mechanical');
#9 = PRODUCT_DEFINITION_CONTEXT('part definition',#2,'design');
#10 = ADVANCED_BREP_SHAPE_REPRESENTATION('',(#11,#15),#221);
#11 = AXIS2_PLACEMENT_3D('',#12,#13,#14);
#12 = CARTESIAN_POINT('',(0.,0.,0.));
#13 = DIRECTION('',(0.,0.,1.));
#14 = DIRECTION('',(1.,0.,-0.));
#15 = MANIFOLD_SOLID_BREP('',#16);
#16 = CLOSED_SHELL('',(#17,#53,#81,#109,#141,#169,#193,#207));
#17 = ADVANCED_FACE('',(#18),#48,.T.);
#18 = FACE_BOUND('',#19,.T.);
#19 = EDGE_LOOP('',(#20,#29,#36,#43));
#20 = ORIENTED_EDGE('',*,*,#21,.F.);
#21 = EDGE_CURVE('',#22,#24,#26,.T.);
#22 = VERTEX_POINT('',#23);
#23 = CARTESIAN_POINT('',(93.572731808877,0.,0.));
#24 = VERTEX_POINT('',#25);
#25 = CARTESIAN_POINT('',(93.572731808877,152.36882628406,0.));
#26 = B_SPLINE_CURVE_WITH_KNOTS('',1,(#27,#28),.UNSPECIFIED.,.F.,.F.,(2,
    2),(-165.44,-1.192064955907E-30),.PIECEWISE_BEZIER_KNOTS.);
#27 = CARTESIAN_POINT('',(93.572731808877,0.,0.));
#28 = CARTESIAN_POINT('',(93.572731808877,152.36882628406,0.));
#29 = ORIENTED_EDGE('',*,*,#30,.F.);
#30 = EDGE_CURVE('',#31,#22,#33,.T.);
#31 = VERTEX_POINT('',#32);
#32 = CARTESIAN_POINT('',(93.572731808877,0.,-11.69659147611));
#33 = B_SPLINE_CURVE_WITH_KNOTS('',1,(#34,#35),.UNSPECIFIED.,.F.,.F.,(2,
    2),(0.,12.7),.PIECEWISE_BEZIER_KNOTS.);
#34 = CARTESIAN_POINT('',(93.572731808877,0.,-11.69659147611));
#35 = CARTESIAN_POINT('',(93.572731808877,0.,0.));
#36 = ORIENTED_EDGE('',*,*,#37,.T.);
#37 = EDGE_CURVE('',#31,#38,#40,.T.);
#38 = VERTEX_POINT('',#39);
#39 = CARTESIAN_POINT('',(93.572731808877,152.36882628406,
    -11.69659147611));
#40 = B_SPLINE_CURVE_WITH_KNOTS('',1,(#41,#42),.UNSPECIFIED.,.F.,.F.,(2,
    2),(-165.44,-1.192064955907E-30),.PIECEWISE_BEZIER_KNOTS.);
#41 = CARTESIAN_POINT('',(93.572731808877,0.,-11.69659147611));
#42 = CARTESIAN_POINT('',(93.572731808877,152.36882628406,
    -11.69659147611));
#43 = ORIENTED_EDGE('',*,*,#44,.T.);
#44 = EDGE_CURVE('',#38,#24,#45,.T.);
#45 = B_SPLINE_CURVE_WITH_KNOTS('',1,(#46,#47),.UNSPECIFIED.,.F.,.F.,(2,
    2),(0.,12.7),.PIECEWISE_BEZIER_KNOTS.);
#46 = CARTESIAN_POINT('',(93.572731808877,152.36882628406,
    -11.69659147611));
#47 = CARTESIAN_POINT('',(93.572731808877,152.36882628406,0.));
#48 = B_SPLINE_SURFACE_WITH_KNOTS('',1,1,(
    (#49,#50)
    ,(#51,#52
    )),.UNSPECIFIED.,.F.,.F.,.F.,(2,2),(2,2),(-165.44,0.),(0.,12.7),
  .PIECEWISE_BEZIER_KNOTS.);
#49 = CARTESIAN_POINT('',(93.572731808877,0.,-11.69659147611));
#50 = CARTESIAN_POINT('',(93.572731808877,0.,0.));
#51 = CARTESIAN_POINT('',(93.572731808877,152.36882628406,
    -11.69659147611));
#52 = CARTESIAN_POINT('',(93.572731808877,152.36882628406,0.));
#53 = ADVANCED_FACE('',(#54),#76,.T.);
#54 = FACE_BOUND('',#55,.T.);
#55 = EDGE_LOOP('',(#56,#63,#70,#75));
#56 = ORIENTED_EDGE('',*,*,#57,.F.);
#57 = EDGE_CURVE('',#58,#22,#60,.T.);
#58 = VERTEX_POINT('',#59);
#59 = CARTESIAN_POINT('',(-93.57273180887,0.,0.));
#60 = B_SPLINE_CURVE_WITH_KNOTS('',1,(#61,#62),.UNSPECIFIED.,.F.,.F.,(2,
    2),(0.,203.2),.PIECEWISE_BEZIER_KNOTS.);
#61 = CARTESIAN_POINT('',(-93.57273180887,0.,0.));
#62 = CARTESIAN_POINT('',(93.572731808877,0.,0.));
#63 = ORIENTED_EDGE('',*,*,#64,.F.);
#64 = EDGE_CURVE('',#65,#58,#67,.T.);
#65 = VERTEX_POINT('',#66);
#66 = CARTESIAN_POINT('',(-93.57273180887,0.,-11.69659147611));
#67 = B_SPLINE_CURVE_WITH_KNOTS('',1,(#68,#69),.UNSPECIFIED.,.F.,.F.,(2,
    2),(0.,12.7),.PIECEWISE_BEZIER_KNOTS.);
#68 = CARTESIAN_POINT('',(-93.57273180887,0.,-11.69659147611));
#69 = CARTESIAN_POINT('',(-93.57273180887,0.,0.));
#70 = ORIENTED_EDGE('',*,*,#71,.T.);
#71 = EDGE_CURVE('',#65,#31,#72,.T.);
#72 = B_SPLINE_CURVE_WITH_KNOTS('',1,(#73,#74),.UNSPECIFIED.,.F.,.F.,(2,
    2),(0.,203.2),.PIECEWISE_BEZIER_KNOTS.);
#73 = CARTESIAN_POINT('',(-93.57273180887,0.,-11.69659147611));
#74 = CARTESIAN_POINT('',(93.572731808877,0.,-11.69659147611));
#75 = ORIENTED_EDGE('',*,*,#30,.T.);
#76 = B_SPLINE_SURFACE_WITH_KNOTS('',1,1,(
    (#77,#78)
    ,(#79,#80
    )),.UNSPECIFIED.,.F.,.F.,.F.,(2,2),(2,2),(-12.7,0.),(0.,203.2),
  .PIECEWISE_BEZIER_KNOTS.);
#77 = CARTESIAN_POINT('',(-93.57273180887,0.,0.));
#78 = CARTESIAN_POINT('',(93.572731808877,0.,0.));
#79 = CARTESIAN_POINT('',(-93.57273180887,0.,-11.69659147611));
#80 = CARTESIAN_POINT('',(93.572731808877,0.,-11.69659147611));
#81 = ADVANCED_FACE('',(#82),#104,.T.);
#82 = FACE_BOUND('',#83,.T.);
#83 = EDGE_LOOP('',(#84,#91,#98,#103));
#84 = ORIENTED_EDGE('',*,*,#85,.F.);
#85 = EDGE_CURVE('',#86,#58,#88,.T.);
#86 = VERTEX_POINT('',#87);
#87 = CARTESIAN_POINT('',(-93.57273180887,152.36882628406,0.));
#88 = B_SPLINE_CURVE_WITH_KNOTS('',1,(#89,#90),.UNSPECIFIED.,.F.,.F.,(2,
    2),(0.,165.44),.PIECEWISE_BEZIER_KNOTS.);
#89 = CARTESIAN_POINT('',(-93.57273180887,152.36882628406,0.));
#90 = CARTESIAN_POINT('',(-93.57273180887,0.,0.));
#91 = ORIENTED_EDGE('',*,*,#92,.F.);
#92 = EDGE_CURVE('',#93,#86,#95,.T.);
#93 = VERTEX_POINT('',#94);
#94 = CARTESIAN_POINT('',(-93.57273180887,152.36882628406,
    -11.69659147611));
#95 = B_SPLINE_CURVE_WITH_KNOTS('',1,(#96,#97),.UNSPECIFIED.,.F.,.F.,(2,
    2),(0.,12.7),.PIECEWISE_BEZIER_KNOTS.);
#96 = CARTESIAN_POINT('',(-93.57273180887,152.36882628406,
    -11.69659147611));
#97 = CARTESIAN_POINT('',(-93.57273180887,152.36882628406,0.));
#98 = ORIENTED_EDGE('',*,*,#99,.T.);
#99 = EDGE_CURVE('',#93,#65,#100,.T.);
#100 = B_SPLINE_CURVE_WITH_KNOTS('',1,(#101,#102),.UNSPECIFIED.,.F.,.F.,
  (2,2),(0.,165.44),.PIECEWISE_BEZIER_KNOTS.);
#101 = CARTESIAN_POINT('',(-93.57273180887,152.36882628406,
    -11.69659147611));
#102 = CARTESIAN_POINT('',(-93.57273180887,0.,-11.69659147611));
#103 = ORIENTED_EDGE('',*,*,#64,.T.);
#104 = B_SPLINE_SURFACE_WITH_KNOTS('',1,1,(
    (#105,#106)
    ,(#107,#108
    )),.UNSPECIFIED.,.F.,.F.,.F.,(2,2),(2,2),(0.,165.44),(0.,12.7),
  .PIECEWISE_BEZIER_KNOTS.);
#105 = CARTESIAN_POINT('',(-93.57273180887,152.36882628406,
    -11.69659147611));
#106 = CARTESIAN_POINT('',(-93.57273180887,152.36882628406,0.));
#107 = CARTESIAN_POINT('',(-93.57273180887,0.,-11.69659147611));
#108 = CARTESIAN_POINT('',(-93.57273180887,0.,0.));
#109 = ADVANCED_FACE('',(#110),#134,.T.);
#110 = FACE_BOUND('',#111,.T.);
#111 = EDGE_LOOP('',(#112,#120,#127,#133));
#112 = ORIENTED_EDGE('',*,*,#113,.F.);
#113 = EDGE_CURVE('',#114,#86,#116,.T.);
#114 = VERTEX_POINT('',#115);
#115 = CARTESIAN_POINT('',(-88.96777453481,156.97378355812,0.));
#116 = ( BOUNDED_CURVE() B_SPLINE_CURVE(2,(#117,#118,#119),
.UNSPECIFIED.,.F.,.F.) B_SPLINE_CURVE_WITH_KNOTS((3,3),(1.570796326795,
3.14159265359),.PIECEWISE_BEZIER_KNOTS.) CURVE() 
GEOMETRIC_REPRESENTATION_ITEM() RATIONAL_B_SPLINE_CURVE((1.,
0.707106781187,1.)) REPRESENTATION_ITEM('') );
#117 = CARTESIAN_POINT('',(-88.96777453481,156.97378355812,0.));
#118 = CARTESIAN_POINT('',(-93.57273180887,156.97378355812,0.));
#119 = CARTESIAN_POINT('',(-93.57273180887,152.36882628406,0.));
#120 = ORIENTED_EDGE('',*,*,#121,.F.);
#121 = EDGE_CURVE('',#122,#114,#124,.T.);
#122 = VERTEX_POINT('',#123);
#123 = CARTESIAN_POINT('',(-88.96777453481,156.97378355812,
    -11.69659147611));
#124 = B_SPLINE_CURVE_WITH_KNOTS('',1,(#125,#126),.UNSPECIFIED.,.F.,.F.,
  (2,2),(0.,12.7),.PIECEWISE_BEZIER_KNOTS.);
#125 = CARTESIAN_POINT('',(-88.96777453481,156.97378355812,
    -11.69659147611));
#126 = CARTESIAN_POINT('',(-88.96777453481,156.97378355812,0.));
#127 = ORIENTED_EDGE('',*,*,#128,.T.);
#128 = EDGE_CURVE('',#122,#93,#129,.T.);
#129 = ( BOUNDED_CURVE() B_SPLINE_CURVE(2,(#130,#131,#132),
.UNSPECIFIED.,.F.,.F.) B_SPLINE_CURVE_WITH_KNOTS((3,3),(1.570796326795,
3.14159265359),.PIECEWISE_BEZIER_KNOTS.) CURVE() 
GEOMETRIC_REPRESENTATION_ITEM() RATIONAL_B_SPLINE_CURVE((1.,
0.707106781187,1.)) REPRESENTATION_ITEM('') );
#130 = CARTESIAN_POINT('',(-88.96777453481,156.97378355812,
    -11.69659147611));
#131 = CARTESIAN_POINT('',(-93.57273180887,156.97378355812,
    -11.69659147611));
#132 = CARTESIAN_POINT('',(-93.57273180887,152.36882628406,
    -11.69659147611));
#133 = ORIENTED_EDGE('',*,*,#92,.T.);
#134 = ( BOUNDED_SURFACE() B_SPLINE_SURFACE(2,1,(
    (#135,#136)
    ,(#137,#138)
,(#139,#140
    )),.UNSPECIFIED.,.F.,.F.,.F.) B_SPLINE_SURFACE_WITH_KNOTS((3,3),(2,2
    ),(1.570796326795,3.14159265359),(0.,12.7),
.PIECEWISE_BEZIER_KNOTS.) GEOMETRIC_REPRESENTATION_ITEM() 
RATIONAL_B_SPLINE_SURFACE((
    (1.,1.)
    ,(0.707106781187,0.707106781187)
,(1.,1.))) REPRESENTATION_ITEM('') SURFACE() );
#135 = CARTESIAN_POINT('',(-88.96777453481,156.97378355812,
    -11.69659147611));
#136 = CARTESIAN_POINT('',(-88.96777453481,156.97378355812,0.));
#137 = CARTESIAN_POINT('',(-93.57273180887,156.97378355812,
    -11.69659147611));
#138 = CARTESIAN_POINT('',(-93.57273180887,156.97378355812,0.));
#139 = CARTESIAN_POINT('',(-93.57273180887,152.36882628406,
    -11.69659147611));
#140 = CARTESIAN_POINT('',(-93.57273180887,152.36882628406,0.));
#141 = ADVANCED_FACE('',(#142),#164,.T.);
#142 = FACE_BOUND('',#143,.T.);
#143 = EDGE_LOOP('',(#144,#151,#158,#163));
#144 = ORIENTED_EDGE('',*,*,#145,.F.);
#145 = EDGE_CURVE('',#146,#114,#148,.T.);
#146 = VERTEX_POINT('',#147);
#147 = CARTESIAN_POINT('',(88.967774534818,156.97378355812,0.));
#148 = B_SPLINE_CURVE_WITH_KNOTS('',1,(#149,#150),.UNSPECIFIED.,.F.,.F.,
  (2,2),(-193.2,-0.),.PIECEWISE_BEZIER_KNOTS.);
#149 = CARTESIAN_POINT('',(88.967774534818,156.97378355812,0.));
#150 = CARTESIAN_POINT('',(-88.96777453481,156.97378355812,0.));
#151 = ORIENTED_EDGE('',*,*,#152,.F.);
#152 = EDGE_CURVE('',#153,#146,#155,.T.);
#153 = VERTEX_POINT('',#154);
#154 = CARTESIAN_POINT('',(88.967774534818,156.97378355812,
    -11.69659147611));
#155 = B_SPLINE_CURVE_WITH_KNOTS('',1,(#156,#157),.UNSPECIFIED.,.F.,.F.,
  (2,2),(0.,12.7),.PIECEWISE_BEZIER_KNOTS.);
#156 = CARTESIAN_POINT('',(88.967774534818,156.97378355812,
    -11.69659147611));
#157 = CARTESIAN_POINT('',(88.967774534818,156.97378355812,0.));
#158 = ORIENTED_EDGE('',*,*,#159,.T.);
#159 = EDGE_CURVE('',#153,#122,#160,.T.);
#160 = B_SPLINE_CURVE_WITH_KNOTS('',1,(#161,#162),.UNSPECIFIED.,.F.,.F.,
  (2,2),(-193.2,-0.),.PIECEWISE_BEZIER_KNOTS.);
#161 = CARTESIAN_POINT('',(88.967774534818,156.97378355812,
    -11.69659147611));
#162 = CARTESIAN_POINT('',(-88.96777453481,156.97378355812,
    -11.69659147611));
#163 = ORIENTED_EDGE('',*,*,#121,.T.);
#164 = B_SPLINE_SURFACE_WITH_KNOTS('',1,1,(
    (#165,#166)
    ,(#167,#168
    )),.UNSPECIFIED.,.F.,.F.,.F.,(2,2),(2,2),(0.,12.7),(0.,193.2),
  .PIECEWISE_BEZIER_KNOTS.);
#165 = CARTESIAN_POINT('',(-88.96777453481,156.97378355812,
    -11.69659147611));
#166 = CARTESIAN_POINT('',(88.967774534818,156.97378355812,
    -11.69659147611));
#167 = CARTESIAN_POINT('',(-88.96777453481,156.97378355812,0.));
#168 = CARTESIAN_POINT('',(88.967774534818,156.97378355812,0.));
#169 = ADVANCED_FACE('',(#170),#186,.T.);
#170 = FACE_BOUND('',#171,.T.);
#171 = EDGE_LOOP('',(#172,#178,#179,#185));
#172 = ORIENTED_EDGE('',*,*,#173,.F.);
#173 = EDGE_CURVE('',#24,#146,#174,.T.);
#174 = ( BOUNDED_CURVE() B_SPLINE_CURVE(2,(#175,#176,#177),
.UNSPECIFIED.,.F.,.F.) B_SPLINE_CURVE_WITH_KNOTS((3,3),(3.14159265359,
4.712388980385),.PIECEWISE_BEZIER_KNOTS.) CURVE() 
GEOMETRIC_REPRESENTATION_ITEM() RATIONAL_B_SPLINE_CURVE((1.,
0.707106781187,1.)) REPRESENTATION_ITEM('') );
#175 = CARTESIAN_POINT('',(93.572731808877,152.36882628406,0.));
#176 = CARTESIAN_POINT('',(93.572731808877,156.97378355812,0.));
#177 = CARTESIAN_POINT('',(88.967774534818,156.97378355812,0.));
#178 = ORIENTED_EDGE('',*,*,#44,.F.);
#179 = ORIENTED_EDGE('',*,*,#180,.T.);
#180 = EDGE_CURVE('',#38,#153,#181,.T.);
#181 = ( BOUNDED_CURVE() B_SPLINE_CURVE(2,(#182,#183,#184),
.UNSPECIFIED.,.F.,.F.) B_SPLINE_CURVE_WITH_KNOTS((3,3),(3.14159265359,
4.712388980385),.PIECEWISE_BEZIER_KNOTS.) CURVE() 
GEOMETRIC_REPRESENTATION_ITEM() RATIONAL_B_SPLINE_CURVE((1.,
0.707106781187,1.)) REPRESENTATION_ITEM('') );
#182 = CARTESIAN_POINT('',(93.572731808877,152.36882628406,
    -11.69659147611));
#183 = CARTESIAN_POINT('',(93.572731808877,156.97378355812,
    -11.69659147611));
#184 = CARTESIAN_POINT('',(88.967774534818,156.97378355812,
    -11.69659147611));
#185 = ORIENTED_EDGE('',*,*,#152,.T.);
#186 = ( BOUNDED_SURFACE() B_SPLINE_SURFACE(2,1,(
    (#187,#188)
    ,(#189,#190)
,(#191,#192
    )),.UNSPECIFIED.,.F.,.F.,.F.) B_SPLINE_SURFACE_WITH_KNOTS((3,3),(2,2
    ),(0.,1.570796326795),(0.,12.7),.PIECEWISE_BEZIER_KNOTS.) 
GEOMETRIC_REPRESENTATION_ITEM() RATIONAL_B_SPLINE_SURFACE((
    (1.,1.)
    ,(0.707106781187,0.707106781187)
,(1.,1.))) REPRESENTATION_ITEM('') SURFACE() );
#187 = CARTESIAN_POINT('',(93.572731808877,152.36882628406,
    -11.69659147611));
#188 = CARTESIAN_POINT('',(93.572731808877,152.36882628406,0.));
#189 = CARTESIAN_POINT('',(93.572731808877,156.97378355812,
    -11.69659147611));
#190 = CARTESIAN_POINT('',(93.572731808877,156.97378355812,0.));
#191 = CARTESIAN_POINT('',(88.967774534818,156.97378355812,
    -11.69659147611));
#192 = CARTESIAN_POINT('',(88.967774534818,156.97378355812,0.));
#193 = ADVANCED_FACE('',(#194),#202,.F.);
#194 = FACE_BOUND('',#195,.T.);
#195 = EDGE_LOOP('',(#196,#197,#198,#199,#200,#201));
#196 = ORIENTED_EDGE('',*,*,#37,.F.);
#197 = ORIENTED_EDGE('',*,*,#71,.F.);
#198 = ORIENTED_EDGE('',*,*,#99,.F.);
#199 = ORIENTED_EDGE('',*,*,#128,.F.);
#200 = ORIENTED_EDGE('',*,*,#159,.F.);
#201 = ORIENTED_EDGE('',*,*,#180,.F.);
#202 = B_SPLINE_SURFACE_WITH_KNOTS('',1,1,(
    (#203,#204)
    ,(#205,#206
    )),.UNSPECIFIED.,.F.,.F.,.F.,(2,2),(2,2),(-5.,198.2),(-165.44,5.),
  .PIECEWISE_BEZIER_KNOTS.);
#203 = CARTESIAN_POINT('',(-93.57273180887,0.,-11.69659147611));
#204 = CARTESIAN_POINT('',(-93.57273180887,156.97378355812,
    -11.69659147611));
#205 = CARTESIAN_POINT('',(93.572731808877,0.,-11.69659147611));
#206 = CARTESIAN_POINT('',(93.572731808877,156.97378355812,
    -11.69659147611));
#207 = ADVANCED_FACE('',(#208),#216,.T.);
#208 = FACE_BOUND('',#209,.T.);
#209 = EDGE_LOOP('',(#210,#211,#212,#213,#214,#215));
#210 = ORIENTED_EDGE('',*,*,#21,.T.);
#211 = ORIENTED_EDGE('',*,*,#173,.T.);
#212 = ORIENTED_EDGE('',*,*,#145,.T.);
#213 = ORIENTED_EDGE('',*,*,#113,.T.);
#214 = ORIENTED_EDGE('',*,*,#85,.T.);
#215 = ORIENTED_EDGE('',*,*,#57,.T.);
#216 = B_SPLINE_SURFACE_WITH_KNOTS('',1,1,(
    (#217,#218)
    ,(#219,#220
    )),.UNSPECIFIED.,.F.,.F.,.F.,(2,2),(2,2),(-5.,198.2),(-165.44,5.),
  .PIECEWISE_BEZIER_KNOTS.);
#217 = CARTESIAN_POINT('',(-93.57273180887,0.,0.));
#218 = CARTESIAN_POINT('',(-93.57273180887,156.97378355812,0.));
#219 = CARTESIAN_POINT('',(93.572731808877,0.,0.));
#220 = CARTESIAN_POINT('',(93.572731808877,156.97378355812,0.));
#221 = ( GEOMETRIC_REPRESENTATION_CONTEXT(3) 
GLOBAL_UNCERTAINTY_ASSIGNED_CONTEXT((#225)) GLOBAL_UNIT_ASSIGNED_CONTEXT
((#222,#223,#224)) REPRESENTATION_CONTEXT('Context #1',
  '3D Context with UNIT and UNCERTAINTY') );
#222 = ( LENGTH_UNIT() NAMED_UNIT(*) SI_UNIT(.MILLI.,.METRE.) );
#223 = ( NAMED_UNIT(*) PLANE_ANGLE_UNIT() SI_UNIT($,.RADIAN.) );
#224 = ( NAMED_UNIT(*) SI_UNIT($,.STERADIAN.) SOLID_ANGLE_UNIT() );
#225 = UNCERTAINTY_MEASURE_WITH_UNIT(LENGTH_MEASURE(1.E-07),#222,
  'distance_accuracy_value','confusion accuracy');
#226 = PRODUCT_RELATED_PRODUCT_CATEGORY('part',$,(#7));
ENDSEC;
END-ISO-10303-21;
