ISO-10303-21;
HEADER;
FILE_DESCRIPTION(('FreeCAD Model'),'2;1');
FILE_NAME('Open CASCADE Shape Model','2025-05-09T15:25:32',('FreeCAD'),(
    'FreeCAD'),'Open CASCADE STEP processor 7.6','FreeCAD','Unknown');
FILE_SCHEMA(('AUTOMOTIVE_DESIGN { 1 0 10303 214 1 1 1 1 }'));
ENDSEC;
DATA;
#1 = APPLICATION_PROTOCOL_DEFINITION('international standard',
  'automotive_design',2000,#2);
#2 = APPLICATION_CONTEXT(
  'core data for automotive mechanical design processes');
#3 = SHAPE_DEFINITION_REPRESENTATION(#4,#10);
#4 = PRODUCT_DEFINITION_SHAPE('','',#5);
#5 = PRODUCT_DEFINITION('design','',#6,#9);
#6 = PRODUCT_DEFINITION_FORMATION('','',#7);
#7 = PRODUCT('Open CASCADE STEP translator 7.6 1',
  'Open CASCADE STEP translator 7.6 1','',(#8));
#8 = PRODUCT_CONTEXT('',#2,'mechanical');
#9 = PRODUCT_DEFINITION_CONTEXT('part definition',#2,'design');
#10 = ADVANCED_BREP_SHAPE_REPRESENTATION('',(#11,#15),#289);
#11 = AXIS2_PLACEMENT_3D('',#12,#13,#14);
#12 = CARTESIAN_POINT('',(0.,0.,0.));
#13 = DIRECTION('',(0.,0.,1.));
#14 = DIRECTION('',(1.,0.,-0.));
#15 = MANIFOLD_SOLID_BREP('',#16);
#16 = CLOSED_SHELL('',(#17,#57,#85,#117,#145,#177,#205,#237,#257,#273));
#17 = ADVANCED_FACE('',(#18),#50,.T.);
#18 = FACE_BOUND('',#19,.T.);
#19 = EDGE_LOOP('',(#20,#30,#37,#45));
#20 = ORIENTED_EDGE('',*,*,#21,.F.);
#21 = EDGE_CURVE('',#22,#24,#26,.T.);
#22 = VERTEX_POINT('',#23);
#23 = CARTESIAN_POINT('',(-79.77811436283,0.,95.733737235402));
#24 = VERTEX_POINT('',#25);
#25 = CARTESIAN_POINT('',(-69.14103244779,0.,106.37081915044));
#26 = ( BOUNDED_CURVE() B_SPLINE_CURVE(2,(#27,#28,#29),.UNSPECIFIED.,.F.
,.F.) B_SPLINE_CURVE_WITH_KNOTS((3,3),(1.570796326795,3.14159265359),
.PIECEWISE_BEZIER_KNOTS.) CURVE() GEOMETRIC_REPRESENTATION_ITEM() 
RATIONAL_B_SPLINE_CURVE((1.,0.707106781187,1.)) REPRESENTATION_ITEM('') 
  );
#27 = CARTESIAN_POINT('',(-79.77811436283,0.,95.733737235402));
#28 = CARTESIAN_POINT('',(-79.77811436283,0.,106.37081915044));
#29 = CARTESIAN_POINT('',(-69.14103244779,0.,106.37081915044));
#30 = ORIENTED_EDGE('',*,*,#31,.F.);
#31 = EDGE_CURVE('',#32,#22,#34,.T.);
#32 = VERTEX_POINT('',#33);
#33 = CARTESIAN_POINT('',(-79.77811436283,-10.13713906503,
    95.733737235402));
#34 = B_SPLINE_CURVE_WITH_KNOTS('',1,(#35,#36),.UNSPECIFIED.,.F.,.F.,(2,
    2),(0.,9.53),.PIECEWISE_BEZIER_KNOTS.);
#35 = CARTESIAN_POINT('',(-79.77811436283,-10.13713906503,
    95.733737235402));
#36 = CARTESIAN_POINT('',(-79.77811436283,0.,95.733737235402));
#37 = ORIENTED_EDGE('',*,*,#38,.T.);
#38 = EDGE_CURVE('',#32,#39,#41,.T.);
#39 = VERTEX_POINT('',#40);
#40 = CARTESIAN_POINT('',(-69.14103244779,-10.13713906503,
    106.37081915044));
#41 = ( BOUNDED_CURVE() B_SPLINE_CURVE(2,(#42,#43,#44),.UNSPECIFIED.,.F.
,.F.) B_SPLINE_CURVE_WITH_KNOTS((3,3),(1.570796326795,3.14159265359),
.PIECEWISE_BEZIER_KNOTS.) CURVE() GEOMETRIC_REPRESENTATION_ITEM() 
RATIONAL_B_SPLINE_CURVE((1.,0.707106781187,1.)) REPRESENTATION_ITEM('') 
  );
#42 = CARTESIAN_POINT('',(-79.77811436283,-10.13713906503,
    95.733737235402));
#43 = CARTESIAN_POINT('',(-79.77811436283,-10.13713906503,
    106.37081915044));
#44 = CARTESIAN_POINT('',(-69.14103244779,-10.13713906503,
    106.37081915044));
#45 = ORIENTED_EDGE('',*,*,#46,.T.);
#46 = EDGE_CURVE('',#39,#24,#47,.T.);
#47 = B_SPLINE_CURVE_WITH_KNOTS('',1,(#48,#49),.UNSPECIFIED.,.F.,.F.,(2,
    2),(0.,9.53),.PIECEWISE_BEZIER_KNOTS.);
#48 = CARTESIAN_POINT('',(-69.14103244779,-10.13713906503,
    106.37081915044));
#49 = CARTESIAN_POINT('',(-69.14103244779,0.,106.37081915044));
#50 = ( BOUNDED_SURFACE() B_SPLINE_SURFACE(2,1,(
    (#51,#52)
    ,(#53,#54)
,(#55,#56
  )),.UNSPECIFIED.,.F.,.F.,.F.) B_SPLINE_SURFACE_WITH_KNOTS((3,3),(2,2),
  (4.712388980385,6.28318530718),(0.,9.53),.PIECEWISE_BEZIER_KNOTS.) 
GEOMETRIC_REPRESENTATION_ITEM() RATIONAL_B_SPLINE_SURFACE((
    (1.,1.)
    ,(0.707106781187,0.707106781187)
,(1.,1.))) REPRESENTATION_ITEM('') SURFACE() );
#51 = CARTESIAN_POINT('',(-79.77811436283,-10.13713906503,
    95.733737235402));
#52 = CARTESIAN_POINT('',(-79.77811436283,0.,95.733737235402));
#53 = CARTESIAN_POINT('',(-79.77811436283,-10.13713906503,
    106.37081915044));
#54 = CARTESIAN_POINT('',(-79.77811436283,0.,106.37081915044));
#55 = CARTESIAN_POINT('',(-69.14103244779,-10.13713906503,
    106.37081915044));
#56 = CARTESIAN_POINT('',(-69.14103244779,0.,106.37081915044));
#57 = ADVANCED_FACE('',(#58),#80,.T.);
#58 = FACE_BOUND('',#59,.T.);
#59 = EDGE_LOOP('',(#60,#67,#74,#79));
#60 = ORIENTED_EDGE('',*,*,#61,.F.);
#61 = EDGE_CURVE('',#62,#22,#64,.T.);
#62 = VERTEX_POINT('',#63);
#63 = CARTESIAN_POINT('',(-79.77811436283,0.,-95.7337372354));
#64 = B_SPLINE_CURVE_WITH_KNOTS('',1,(#65,#66),.UNSPECIFIED.,.F.,.F.,(2,
    2),(-180.,0.),.PIECEWISE_BEZIER_KNOTS.);
#65 = CARTESIAN_POINT('',(-79.77811436283,0.,-95.7337372354));
#66 = CARTESIAN_POINT('',(-79.77811436283,0.,95.733737235402));
#67 = ORIENTED_EDGE('',*,*,#68,.F.);
#68 = EDGE_CURVE('',#69,#62,#71,.T.);
#69 = VERTEX_POINT('',#70);
#70 = CARTESIAN_POINT('',(-79.77811436283,-10.13713906503,-95.7337372354
    ));
#71 = B_SPLINE_CURVE_WITH_KNOTS('',1,(#72,#73),.UNSPECIFIED.,.F.,.F.,(2,
    2),(0.,9.53),.PIECEWISE_BEZIER_KNOTS.);
#72 = CARTESIAN_POINT('',(-79.77811436283,-10.13713906503,-95.7337372354
    ));
#73 = CARTESIAN_POINT('',(-79.77811436283,0.,-95.7337372354));
#74 = ORIENTED_EDGE('',*,*,#75,.T.);
#75 = EDGE_CURVE('',#69,#32,#76,.T.);
#76 = B_SPLINE_CURVE_WITH_KNOTS('',1,(#77,#78),.UNSPECIFIED.,.F.,.F.,(2,
    2),(-180.,0.),.PIECEWISE_BEZIER_KNOTS.);
#77 = CARTESIAN_POINT('',(-79.77811436283,-10.13713906503,-95.7337372354
    ));
#78 = CARTESIAN_POINT('',(-79.77811436283,-10.13713906503,
    95.733737235402));
#79 = ORIENTED_EDGE('',*,*,#31,.T.);
#80 = B_SPLINE_SURFACE_WITH_KNOTS('',1,1,(
    (#81,#82)
    ,(#83,#84
    )),.UNSPECIFIED.,.F.,.F.,.F.,(2,2),(2,2),(-180.,0.),(0.,9.53),
  .PIECEWISE_BEZIER_KNOTS.);
#81 = CARTESIAN_POINT('',(-79.77811436283,-10.13713906503,-95.7337372354
    ));
#82 = CARTESIAN_POINT('',(-79.77811436283,0.,-95.7337372354));
#83 = CARTESIAN_POINT('',(-79.77811436283,-10.13713906503,
    95.733737235402));
#84 = CARTESIAN_POINT('',(-79.77811436283,0.,95.733737235402));
#85 = ADVANCED_FACE('',(#86),#110,.T.);
#86 = FACE_BOUND('',#87,.T.);
#87 = EDGE_LOOP('',(#88,#96,#103,#109));
#88 = ORIENTED_EDGE('',*,*,#89,.F.);
#89 = EDGE_CURVE('',#90,#62,#92,.T.);
#90 = VERTEX_POINT('',#91);
#91 = CARTESIAN_POINT('',(-69.14103244779,0.,-106.3708191504));
#92 = ( BOUNDED_CURVE() B_SPLINE_CURVE(2,(#93,#94,#95),.UNSPECIFIED.,.F.
,.F.) B_SPLINE_CURVE_WITH_KNOTS((3,3),(0.,1.570796326795),
.PIECEWISE_BEZIER_KNOTS.) CURVE() GEOMETRIC_REPRESENTATION_ITEM() 
RATIONAL_B_SPLINE_CURVE((1.,0.707106781187,1.)) REPRESENTATION_ITEM('') 
  );
#93 = CARTESIAN_POINT('',(-69.14103244779,0.,-106.3708191504));
#94 = CARTESIAN_POINT('',(-79.77811436283,0.,-106.3708191504));
#95 = CARTESIAN_POINT('',(-79.77811436283,0.,-95.7337372354));
#96 = ORIENTED_EDGE('',*,*,#97,.F.);
#97 = EDGE_CURVE('',#98,#90,#100,.T.);
#98 = VERTEX_POINT('',#99);
#99 = CARTESIAN_POINT('',(-69.14103244779,-10.13713906503,
    -106.3708191504));
#100 = B_SPLINE_CURVE_WITH_KNOTS('',1,(#101,#102),.UNSPECIFIED.,.F.,.F.,
  (2,2),(0.,9.53),.PIECEWISE_BEZIER_KNOTS.);
#101 = CARTESIAN_POINT('',(-69.14103244779,-10.13713906503,
    -106.3708191504));
#102 = CARTESIAN_POINT('',(-69.14103244779,0.,-106.3708191504));
#103 = ORIENTED_EDGE('',*,*,#104,.T.);
#104 = EDGE_CURVE('',#98,#69,#105,.T.);
#105 = ( BOUNDED_CURVE() B_SPLINE_CURVE(2,(#106,#107,#108),
.UNSPECIFIED.,.F.,.F.) B_SPLINE_CURVE_WITH_KNOTS((3,3),(0.,
1.570796326795),.PIECEWISE_BEZIER_KNOTS.) CURVE() 
GEOMETRIC_REPRESENTATION_ITEM() RATIONAL_B_SPLINE_CURVE((1.,
0.707106781187,1.)) REPRESENTATION_ITEM('') );
#106 = CARTESIAN_POINT('',(-69.14103244779,-10.13713906503,
    -106.3708191504));
#107 = CARTESIAN_POINT('',(-79.77811436283,-10.13713906503,
    -106.3708191504));
#108 = CARTESIAN_POINT('',(-79.77811436283,-10.13713906503,
    -95.7337372354));
#109 = ORIENTED_EDGE('',*,*,#68,.T.);
#110 = ( BOUNDED_SURFACE() B_SPLINE_SURFACE(2,1,(
    (#111,#112)
    ,(#113,#114)
,(#115,#116
    )),.UNSPECIFIED.,.F.,.F.,.F.) B_SPLINE_SURFACE_WITH_KNOTS((3,3),(2,2
    ),(3.14159265359,4.712388980385),(0.,9.53),
.PIECEWISE_BEZIER_KNOTS.) GEOMETRIC_REPRESENTATION_ITEM() 
RATIONAL_B_SPLINE_SURFACE((
    (1.,1.)
    ,(0.707106781187,0.707106781187)
,(1.,1.))) REPRESENTATION_ITEM('') SURFACE() );
#111 = CARTESIAN_POINT('',(-69.14103244779,-10.13713906503,
    -106.3708191504));
#112 = CARTESIAN_POINT('',(-69.14103244779,0.,-106.3708191504));
#113 = CARTESIAN_POINT('',(-79.77811436283,-10.13713906503,
    -106.3708191504));
#114 = CARTESIAN_POINT('',(-79.77811436283,0.,-106.3708191504));
#115 = CARTESIAN_POINT('',(-79.77811436283,-10.13713906503,
    -95.7337372354));
#116 = CARTESIAN_POINT('',(-79.77811436283,0.,-95.7337372354));
#117 = ADVANCED_FACE('',(#118),#140,.T.);
#118 = FACE_BOUND('',#119,.T.);
#119 = EDGE_LOOP('',(#120,#127,#134,#139));
#120 = ORIENTED_EDGE('',*,*,#121,.F.);
#121 = EDGE_CURVE('',#122,#90,#124,.T.);
#122 = VERTEX_POINT('',#123);
#123 = CARTESIAN_POINT('',(69.14103244779,0.,-106.3708191504));
#124 = B_SPLINE_CURVE_WITH_KNOTS('',1,(#125,#126),.UNSPECIFIED.,.F.,.F.,
  (2,2),(-130.,-0.),.PIECEWISE_BEZIER_KNOTS.);
#125 = CARTESIAN_POINT('',(69.14103244779,0.,-106.3708191504));
#126 = CARTESIAN_POINT('',(-69.14103244779,0.,-106.3708191504));
#127 = ORIENTED_EDGE('',*,*,#128,.F.);
#128 = EDGE_CURVE('',#129,#122,#131,.T.);
#129 = VERTEX_POINT('',#130);
#130 = CARTESIAN_POINT('',(69.14103244779,-10.13713906503,
    -106.3708191504));
#131 = B_SPLINE_CURVE_WITH_KNOTS('',1,(#132,#133),.UNSPECIFIED.,.F.,.F.,
  (2,2),(0.,9.53),.PIECEWISE_BEZIER_KNOTS.);
#132 = CARTESIAN_POINT('',(69.14103244779,-10.13713906503,
    -106.3708191504));
#133 = CARTESIAN_POINT('',(69.14103244779,0.,-106.3708191504));
#134 = ORIENTED_EDGE('',*,*,#135,.T.);
#135 = EDGE_CURVE('',#129,#98,#136,.T.);
#136 = B_SPLINE_CURVE_WITH_KNOTS('',1,(#137,#138),.UNSPECIFIED.,.F.,.F.,
  (2,2),(-130.,-0.),.PIECEWISE_BEZIER_KNOTS.);
#137 = CARTESIAN_POINT('',(69.14103244779,-10.13713906503,
    -106.3708191504));
#138 = CARTESIAN_POINT('',(-69.14103244779,-10.13713906503,
    -106.3708191504));
#139 = ORIENTED_EDGE('',*,*,#97,.T.);
#140 = B_SPLINE_SURFACE_WITH_KNOTS('',1,1,(
    (#141,#142)
    ,(#143,#144
    )),.UNSPECIFIED.,.F.,.F.,.F.,(2,2),(2,2),(-130.,0.),(0.,9.53),
  .PIECEWISE_BEZIER_KNOTS.);
#141 = CARTESIAN_POINT('',(69.14103244779,-10.13713906503,
    -106.3708191504));
#142 = CARTESIAN_POINT('',(69.14103244779,0.,-106.3708191504));
#143 = CARTESIAN_POINT('',(-69.14103244779,-10.13713906503,
    -106.3708191504));
#144 = CARTESIAN_POINT('',(-69.14103244779,0.,-106.3708191504));
#145 = ADVANCED_FACE('',(#146),#170,.T.);
#146 = FACE_BOUND('',#147,.T.);
#147 = EDGE_LOOP('',(#148,#156,#163,#169));
#148 = ORIENTED_EDGE('',*,*,#149,.F.);
#149 = EDGE_CURVE('',#150,#122,#152,.T.);
#150 = VERTEX_POINT('',#151);
#151 = CARTESIAN_POINT('',(79.778114362835,0.,-95.7337372354));
#152 = ( BOUNDED_CURVE() B_SPLINE_CURVE(2,(#153,#154,#155),
.UNSPECIFIED.,.F.,.F.) B_SPLINE_CURVE_WITH_KNOTS((3,3),(4.712388980385,
6.28318530718),.PIECEWISE_BEZIER_KNOTS.) CURVE() 
GEOMETRIC_REPRESENTATION_ITEM() RATIONAL_B_SPLINE_CURVE((1.,
0.707106781187,1.)) REPRESENTATION_ITEM('') );
#153 = CARTESIAN_POINT('',(79.778114362835,0.,-95.7337372354));
#154 = CARTESIAN_POINT('',(79.778114362835,0.,-106.3708191504));
#155 = CARTESIAN_POINT('',(69.14103244779,0.,-106.3708191504));
#156 = ORIENTED_EDGE('',*,*,#157,.F.);
#157 = EDGE_CURVE('',#158,#150,#160,.T.);
#158 = VERTEX_POINT('',#159);
#159 = CARTESIAN_POINT('',(79.778114362835,-10.13713906503,
    -95.7337372354));
#160 = B_SPLINE_CURVE_WITH_KNOTS('',1,(#161,#162),.UNSPECIFIED.,.F.,.F.,
  (2,2),(0.,9.53),.PIECEWISE_BEZIER_KNOTS.);
#161 = CARTESIAN_POINT('',(79.778114362835,-10.13713906503,
    -95.7337372354));
#162 = CARTESIAN_POINT('',(79.778114362835,0.,-95.7337372354));
#163 = ORIENTED_EDGE('',*,*,#164,.T.);
#164 = EDGE_CURVE('',#158,#129,#165,.T.);
#165 = ( BOUNDED_CURVE() B_SPLINE_CURVE(2,(#166,#167,#168),
.UNSPECIFIED.,.F.,.F.) B_SPLINE_CURVE_WITH_KNOTS((3,3),(4.712388980385,
6.28318530718),.PIECEWISE_BEZIER_KNOTS.) CURVE() 
GEOMETRIC_REPRESENTATION_ITEM() RATIONAL_B_SPLINE_CURVE((1.,
0.707106781187,1.)) REPRESENTATION_ITEM('') );
#166 = CARTESIAN_POINT('',(79.778114362835,-10.13713906503,
    -95.7337372354));
#167 = CARTESIAN_POINT('',(79.778114362835,-10.13713906503,
    -106.3708191504));
#168 = CARTESIAN_POINT('',(69.14103244779,-10.13713906503,
    -106.3708191504));
#169 = ORIENTED_EDGE('',*,*,#128,.T.);
#170 = ( BOUNDED_SURFACE() B_SPLINE_SURFACE(2,1,(
    (#171,#172)
    ,(#173,#174)
,(#175,#176
    )),.UNSPECIFIED.,.F.,.F.,.F.) B_SPLINE_SURFACE_WITH_KNOTS((3,3),(2,2
    ),(1.570796326795,3.14159265359),(0.,9.53),
.PIECEWISE_BEZIER_KNOTS.) GEOMETRIC_REPRESENTATION_ITEM() 
RATIONAL_B_SPLINE_SURFACE((
    (1.,1.)
    ,(0.707106781187,0.707106781187)
,(1.,1.))) REPRESENTATION_ITEM('') SURFACE() );
#171 = CARTESIAN_POINT('',(79.778114362835,-10.13713906503,
    -95.7337372354));
#172 = CARTESIAN_POINT('',(79.778114362835,0.,-95.7337372354));
#173 = CARTESIAN_POINT('',(79.778114362835,-10.13713906503,
    -106.3708191504));
#174 = CARTESIAN_POINT('',(79.778114362835,0.,-106.3708191504));
#175 = CARTESIAN_POINT('',(69.14103244779,-10.13713906503,
    -106.3708191504));
#176 = CARTESIAN_POINT('',(69.14103244779,0.,-106.3708191504));
#177 = ADVANCED_FACE('',(#178),#200,.T.);
#178 = FACE_BOUND('',#179,.T.);
#179 = EDGE_LOOP('',(#180,#187,#194,#199));
#180 = ORIENTED_EDGE('',*,*,#181,.F.);
#181 = EDGE_CURVE('',#182,#150,#184,.T.);
#182 = VERTEX_POINT('',#183);
#183 = CARTESIAN_POINT('',(79.778114362835,0.,95.733737235402));
#184 = B_SPLINE_CURVE_WITH_KNOTS('',1,(#185,#186),.UNSPECIFIED.,.F.,.F.,
  (2,2),(0.,180.),.PIECEWISE_BEZIER_KNOTS.);
#185 = CARTESIAN_POINT('',(79.778114362835,0.,95.733737235402));
#186 = CARTESIAN_POINT('',(79.778114362835,0.,-95.7337372354));
#187 = ORIENTED_EDGE('',*,*,#188,.F.);
#188 = EDGE_CURVE('',#189,#182,#191,.T.);
#189 = VERTEX_POINT('',#190);
#190 = CARTESIAN_POINT('',(79.778114362835,-10.13713906503,
    95.733737235402));
#191 = B_SPLINE_CURVE_WITH_KNOTS('',1,(#192,#193),.UNSPECIFIED.,.F.,.F.,
  (2,2),(0.,9.53),.PIECEWISE_BEZIER_KNOTS.);
#192 = CARTESIAN_POINT('',(79.778114362835,-10.13713906503,
    95.733737235402));
#193 = CARTESIAN_POINT('',(79.778114362835,0.,95.733737235402));
#194 = ORIENTED_EDGE('',*,*,#195,.T.);
#195 = EDGE_CURVE('',#189,#158,#196,.T.);
#196 = B_SPLINE_CURVE_WITH_KNOTS('',1,(#197,#198),.UNSPECIFIED.,.F.,.F.,
  (2,2),(0.,180.),.PIECEWISE_BEZIER_KNOTS.);
#197 = CARTESIAN_POINT('',(79.778114362835,-10.13713906503,
    95.733737235402));
#198 = CARTESIAN_POINT('',(79.778114362835,-10.13713906503,
    -95.7337372354));
#199 = ORIENTED_EDGE('',*,*,#157,.T.);
#200 = B_SPLINE_SURFACE_WITH_KNOTS('',1,1,(
    (#201,#202)
    ,(#203,#204
    )),.UNSPECIFIED.,.F.,.F.,.F.,(2,2),(2,2),(0.,180.),(0.,9.53),
  .PIECEWISE_BEZIER_KNOTS.);
#201 = CARTESIAN_POINT('',(79.778114362835,-10.13713906503,
    95.733737235402));
#202 = CARTESIAN_POINT('',(79.778114362835,0.,95.733737235402));
#203 = CARTESIAN_POINT('',(79.778114362835,-10.13713906503,
    -95.7337372354));
#204 = CARTESIAN_POINT('',(79.778114362835,0.,-95.7337372354));
#205 = ADVANCED_FACE('',(#206),#230,.T.);
#206 = FACE_BOUND('',#207,.T.);
#207 = EDGE_LOOP('',(#208,#216,#223,#229));
#208 = ORIENTED_EDGE('',*,*,#209,.F.);
#209 = EDGE_CURVE('',#210,#182,#212,.T.);
#210 = VERTEX_POINT('',#211);
#211 = CARTESIAN_POINT('',(69.14103244779,0.,106.37081915044));
#212 = ( BOUNDED_CURVE() B_SPLINE_CURVE(2,(#213,#214,#215),
.UNSPECIFIED.,.F.,.F.) B_SPLINE_CURVE_WITH_KNOTS((3,3),(0.,
1.570796326795),.PIECEWISE_BEZIER_KNOTS.) CURVE() 
GEOMETRIC_REPRESENTATION_ITEM() RATIONAL_B_SPLINE_CURVE((1.,
0.707106781187,1.)) REPRESENTATION_ITEM('') );
#213 = CARTESIAN_POINT('',(69.14103244779,0.,106.37081915044));
#214 = CARTESIAN_POINT('',(79.778114362835,0.,106.37081915044));
#215 = CARTESIAN_POINT('',(79.778114362835,0.,95.733737235402));
#216 = ORIENTED_EDGE('',*,*,#217,.F.);
#217 = EDGE_CURVE('',#218,#210,#220,.T.);
#218 = VERTEX_POINT('',#219);
#219 = CARTESIAN_POINT('',(69.14103244779,-10.13713906503,
    106.37081915044));
#220 = B_SPLINE_CURVE_WITH_KNOTS('',1,(#221,#222),.UNSPECIFIED.,.F.,.F.,
  (2,2),(0.,9.53),.PIECEWISE_BEZIER_KNOTS.);
#221 = CARTESIAN_POINT('',(69.14103244779,-10.13713906503,
    106.37081915044));
#222 = CARTESIAN_POINT('',(69.14103244779,0.,106.37081915044));
#223 = ORIENTED_EDGE('',*,*,#224,.T.);
#224 = EDGE_CURVE('',#218,#189,#225,.T.);
#225 = ( BOUNDED_CURVE() B_SPLINE_CURVE(2,(#226,#227,#228),
.UNSPECIFIED.,.F.,.F.) B_SPLINE_CURVE_WITH_KNOTS((3,3),(0.,
1.570796326795),.PIECEWISE_BEZIER_KNOTS.) CURVE() 
GEOMETRIC_REPRESENTATION_ITEM() RATIONAL_B_SPLINE_CURVE((1.,
0.707106781187,1.)) REPRESENTATION_ITEM('') );
#226 = CARTESIAN_POINT('',(69.14103244779,-10.13713906503,
    106.37081915044));
#227 = CARTESIAN_POINT('',(79.778114362835,-10.13713906503,
    106.37081915044));
#228 = CARTESIAN_POINT('',(79.778114362835,-10.13713906503,
    95.733737235402));
#229 = ORIENTED_EDGE('',*,*,#188,.T.);
#230 = ( BOUNDED_SURFACE() B_SPLINE_SURFACE(2,1,(
    (#231,#232)
    ,(#233,#234)
,(#235,#236
    )),.UNSPECIFIED.,.F.,.F.,.F.) B_SPLINE_SURFACE_WITH_KNOTS((3,3),(2,2
    ),(0.,1.570796326795),(0.,9.53),.PIECEWISE_BEZIER_KNOTS.) 
GEOMETRIC_REPRESENTATION_ITEM() RATIONAL_B_SPLINE_SURFACE((
    (1.,1.)
    ,(0.707106781187,0.707106781187)
,(1.,1.))) REPRESENTATION_ITEM('') SURFACE() );
#231 = CARTESIAN_POINT('',(69.14103244779,-10.13713906503,
    106.37081915044));
#232 = CARTESIAN_POINT('',(69.14103244779,0.,106.37081915044));
#233 = CARTESIAN_POINT('',(79.778114362835,-10.13713906503,
    106.37081915044));
#234 = CARTESIAN_POINT('',(79.778114362835,0.,106.37081915044));
#235 = CARTESIAN_POINT('',(79.778114362835,-10.13713906503,
    95.733737235402));
#236 = CARTESIAN_POINT('',(79.778114362835,0.,95.733737235402));
#237 = ADVANCED_FACE('',(#238),#252,.T.);
#238 = FACE_BOUND('',#239,.T.);
#239 = EDGE_LOOP('',(#240,#245,#246,#251));
#240 = ORIENTED_EDGE('',*,*,#241,.F.);
#241 = EDGE_CURVE('',#24,#210,#242,.T.);
#242 = B_SPLINE_CURVE_WITH_KNOTS('',1,(#243,#244),.UNSPECIFIED.,.F.,.F.,
  (2,2),(0.,130.),.PIECEWISE_BEZIER_KNOTS.);
#243 = CARTESIAN_POINT('',(-69.14103244779,0.,106.37081915044));
#244 = CARTESIAN_POINT('',(69.14103244779,0.,106.37081915044));
#245 = ORIENTED_EDGE('',*,*,#46,.F.);
#246 = ORIENTED_EDGE('',*,*,#247,.T.);
#247 = EDGE_CURVE('',#39,#218,#248,.T.);
#248 = B_SPLINE_CURVE_WITH_KNOTS('',1,(#249,#250),.UNSPECIFIED.,.F.,.F.,
  (2,2),(0.,130.),.PIECEWISE_BEZIER_KNOTS.);
#249 = CARTESIAN_POINT('',(-69.14103244779,-10.13713906503,
    106.37081915044));
#250 = CARTESIAN_POINT('',(69.14103244779,-10.13713906503,
    106.37081915044));
#251 = ORIENTED_EDGE('',*,*,#217,.T.);
#252 = B_SPLINE_SURFACE_WITH_KNOTS('',1,1,(
    (#253,#254)
    ,(#255,#256
    )),.UNSPECIFIED.,.F.,.F.,.F.,(2,2),(2,2),(0.,130.),(0.,9.53),
  .PIECEWISE_BEZIER_KNOTS.);
#253 = CARTESIAN_POINT('',(-69.14103244779,-10.13713906503,
    106.37081915044));
#254 = CARTESIAN_POINT('',(-69.14103244779,0.,106.37081915044));
#255 = CARTESIAN_POINT('',(69.14103244779,-10.13713906503,
    106.37081915044));
#256 = CARTESIAN_POINT('',(69.14103244779,0.,106.37081915044));
#257 = ADVANCED_FACE('',(#258),#268,.T.);
#258 = FACE_BOUND('',#259,.T.);
#259 = EDGE_LOOP('',(#260,#261,#262,#263,#264,#265,#266,#267));
#260 = ORIENTED_EDGE('',*,*,#38,.F.);
#261 = ORIENTED_EDGE('',*,*,#75,.F.);
#262 = ORIENTED_EDGE('',*,*,#104,.F.);
#263 = ORIENTED_EDGE('',*,*,#135,.F.);
#264 = ORIENTED_EDGE('',*,*,#164,.F.);
#265 = ORIENTED_EDGE('',*,*,#195,.F.);
#266 = ORIENTED_EDGE('',*,*,#224,.F.);
#267 = ORIENTED_EDGE('',*,*,#247,.F.);
#268 = B_SPLINE_SURFACE_WITH_KNOTS('',1,1,(
    (#269,#270)
    ,(#271,#272
    )),.UNSPECIFIED.,.F.,.F.,.F.,(2,2),(2,2),(-10.,190.),(-10.,140.),
  .PIECEWISE_BEZIER_KNOTS.);
#269 = CARTESIAN_POINT('',(-79.77811436283,-10.13713906503,
    106.37081915044));
#270 = CARTESIAN_POINT('',(79.778114362835,-10.13713906503,
    106.37081915044));
#271 = CARTESIAN_POINT('',(-79.77811436283,-10.13713906503,
    -106.3708191504));
#272 = CARTESIAN_POINT('',(79.778114362835,-10.13713906503,
    -106.3708191504));
#273 = ADVANCED_FACE('',(#274),#284,.F.);
#274 = FACE_BOUND('',#275,.T.);
#275 = EDGE_LOOP('',(#276,#277,#278,#279,#280,#281,#282,#283));
#276 = ORIENTED_EDGE('',*,*,#21,.T.);
#277 = ORIENTED_EDGE('',*,*,#241,.T.);
#278 = ORIENTED_EDGE('',*,*,#209,.T.);
#279 = ORIENTED_EDGE('',*,*,#181,.T.);
#280 = ORIENTED_EDGE('',*,*,#149,.T.);
#281 = ORIENTED_EDGE('',*,*,#121,.T.);
#282 = ORIENTED_EDGE('',*,*,#89,.T.);
#283 = ORIENTED_EDGE('',*,*,#61,.T.);
#284 = B_SPLINE_SURFACE_WITH_KNOTS('',1,1,(
    (#285,#286)
    ,(#287,#288
    )),.UNSPECIFIED.,.F.,.F.,.F.,(2,2),(2,2),(-10.,190.),(-10.,140.),
  .PIECEWISE_BEZIER_KNOTS.);
#285 = CARTESIAN_POINT('',(-79.77811436283,0.,106.37081915044));
#286 = CARTESIAN_POINT('',(79.778114362835,0.,106.37081915044));
#287 = CARTESIAN_POINT('',(-79.77811436283,0.,-106.3708191504));
#288 = CARTESIAN_POINT('',(79.778114362835,0.,-106.3708191504));
#289 = ( GEOMETRIC_REPRESENTATION_CONTEXT(3) 
GLOBAL_UNCERTAINTY_ASSIGNED_CONTEXT((#293)) GLOBAL_UNIT_ASSIGNED_CONTEXT
((#290,#291,#292)) REPRESENTATION_CONTEXT('Context #1',
  '3D Context with UNIT and UNCERTAINTY') );
#290 = ( LENGTH_UNIT() NAMED_UNIT(*) SI_UNIT(.MILLI.,.METRE.) );
#291 = ( NAMED_UNIT(*) PLANE_ANGLE_UNIT() SI_UNIT($,.RADIAN.) );
#292 = ( NAMED_UNIT(*) SI_UNIT($,.STERADIAN.) SOLID_ANGLE_UNIT() );
#293 = UNCERTAINTY_MEASURE_WITH_UNIT(LENGTH_MEASURE(1.E-07),#290,
  'distance_accuracy_value','confusion accuracy');
#294 = PRODUCT_RELATED_PRODUCT_CATEGORY('part',$,(#7));
ENDSEC;
END-ISO-10303-21;
