ISO-10303-21;
HEADER;
FILE_DESCRIPTION(('FreeCAD Model'),'2;1');
FILE_NAME('Open CASCADE Shape Model','2025-05-09T15:23:14',('FreeCAD'),(
    'FreeCAD'),'Open CASCADE STEP processor 7.6','FreeCAD','Unknown');
FILE_SCHEMA(('AUTOMOTIVE_DESIGN { 1 0 10303 214 1 1 1 1 }'));
ENDSEC;
DATA;
#1 = APPLICATION_PROTOCOL_DEFINITION('international standard',
  'automotive_design',2000,#2);
#2 = APPLICATION_CONTEXT(
  'core data for automotive mechanical design processes');
#3 = SHAPE_DEFINITION_REPRESENTATION(#4,#10);
#4 = PRODUCT_DEFINITION_SHAPE('','',#5);
#5 = PRODUCT_DEFINITION('design','',#6,#9);
#6 = PRODUCT_DEFINITION_FORMATION('','',#7);
#7 = PRODUCT('Open CASCADE STEP translator 7.6 1',
  'Open CASCADE STEP translator 7.6 1','',(#8));
#8 = PRODUCT_CONTEXT('',#2,'mechanical');
#9 = PRODUCT_DEFINITION_CONTEXT('part definition',#2,'design');
#10 = ADVANCED_BREP_SHAPE_REPRESENTATION('',(#11,#15),#315);
#11 = AXIS2_PLACEMENT_3D('',#12,#13,#14);
#12 = CARTESIAN_POINT('',(0.,0.,0.));
#13 = DIRECTION('',(0.,0.,1.));
#14 = DIRECTION('',(1.,0.,-0.));
#15 = MANIFOLD_SOLID_BREP('',#16);
#16 = CLOSED_SHELL('',(#17,#53,#85,#113,#145,#173,#205,#233,#261,#281,
    #298));
#17 = ADVANCED_FACE('',(#18),#48,.F.);
#18 = FACE_BOUND('',#19,.T.);
#19 = EDGE_LOOP('',(#20,#29,#36,#43));
#20 = ORIENTED_EDGE('',*,*,#21,.T.);
#21 = EDGE_CURVE('',#22,#24,#26,.T.);
#22 = VERTEX_POINT('',#23);
#23 = CARTESIAN_POINT('',(-107.3531994621,0.,145.42780087144));
#24 = VERTEX_POINT('',#25);
#25 = CARTESIAN_POINT('',(-107.3531994621,-6.484133247516,
    145.42780087144));
#26 = B_SPLINE_CURVE_WITH_KNOTS('',1,(#27,#28),.UNSPECIFIED.,.F.,.F.,(2,
    2),(-4.53,3.552713678801E-14),.PIECEWISE_BEZIER_KNOTS.);
#27 = CARTESIAN_POINT('',(-107.3531994621,0.,145.42780087144));
#28 = CARTESIAN_POINT('',(-107.3531994621,-6.484133247516,
    145.42780087144));
#29 = ORIENTED_EDGE('',*,*,#30,.F.);
#30 = EDGE_CURVE('',#31,#24,#33,.T.);
#31 = VERTEX_POINT('',#32);
#32 = CARTESIAN_POINT('',(107.35319946218,-6.484133247516,
    145.42780087144));
#33 = B_SPLINE_CURVE_WITH_KNOTS('',1,(#34,#35),.UNSPECIFIED.,.F.,.F.,(2,
    2),(-0.,150.),.PIECEWISE_BEZIER_KNOTS.);
#34 = CARTESIAN_POINT('',(107.35319946218,-6.484133247516,
    145.42780087144));
#35 = CARTESIAN_POINT('',(-107.3531994621,-6.484133247516,
    145.42780087144));
#36 = ORIENTED_EDGE('',*,*,#37,.F.);
#37 = EDGE_CURVE('',#38,#31,#40,.T.);
#38 = VERTEX_POINT('',#39);
#39 = CARTESIAN_POINT('',(107.35319946218,0.,145.42780087144));
#40 = B_SPLINE_CURVE_WITH_KNOTS('',1,(#41,#42),.UNSPECIFIED.,.F.,.F.,(2,
    2),(-4.53,3.552713678801E-14),.PIECEWISE_BEZIER_KNOTS.);
#41 = CARTESIAN_POINT('',(107.35319946218,0.,145.42780087144));
#42 = CARTESIAN_POINT('',(107.35319946218,-6.484133247516,
    145.42780087144));
#43 = ORIENTED_EDGE('',*,*,#44,.T.);
#44 = EDGE_CURVE('',#38,#22,#45,.T.);
#45 = B_SPLINE_CURVE_WITH_KNOTS('',1,(#46,#47),.UNSPECIFIED.,.F.,.F.,(2,
    2),(-0.,150.),.PIECEWISE_BEZIER_KNOTS.);
#46 = CARTESIAN_POINT('',(107.35319946218,0.,145.42780087144));
#47 = CARTESIAN_POINT('',(-107.3531994621,0.,145.42780087144));
#48 = B_SPLINE_SURFACE_WITH_KNOTS('',1,1,(
    (#49,#50)
    ,(#51,#52
    )),.UNSPECIFIED.,.F.,.F.,.F.,(2,2),(2,2),(-0.,150.),(
    -3.552713678801E-14,4.53),.PIECEWISE_BEZIER_KNOTS.);
#49 = CARTESIAN_POINT('',(107.35319946218,-6.484133247516,
    145.42780087144));
#50 = CARTESIAN_POINT('',(107.35319946218,0.,145.42780087144));
#51 = CARTESIAN_POINT('',(-107.3531994621,-6.484133247516,
    145.42780087144));
#52 = CARTESIAN_POINT('',(-107.3531994621,0.,145.42780087144));
#53 = ADVANCED_FACE('',(#54),#78,.T.);
#54 = FACE_BOUND('',#55,.T.);
#55 = EDGE_LOOP('',(#56,#64,#71,#77));
#56 = ORIENTED_EDGE('',*,*,#57,.T.);
#57 = EDGE_CURVE('',#24,#58,#60,.T.);
#58 = VERTEX_POINT('',#59);
#59 = CARTESIAN_POINT('',(-107.3531994621,-13.64101321166,
    138.27092090729));
#60 = ( BOUNDED_CURVE() B_SPLINE_CURVE(2,(#61,#62,#63),.UNSPECIFIED.,.F.
,.F.) B_SPLINE_CURVE_WITH_KNOTS((3,3),(0.,1.570796326795),
.PIECEWISE_BEZIER_KNOTS.) CURVE() GEOMETRIC_REPRESENTATION_ITEM() 
RATIONAL_B_SPLINE_CURVE((1.,0.707106781187,1.)) REPRESENTATION_ITEM('') 
  );
#61 = CARTESIAN_POINT('',(-107.3531994621,-6.484133247516,
    145.42780087144));
#62 = CARTESIAN_POINT('',(-107.3531994621,-13.64101321166,
    145.42780087144));
#63 = CARTESIAN_POINT('',(-107.3531994621,-13.64101321166,
    138.27092090729));
#64 = ORIENTED_EDGE('',*,*,#65,.F.);
#65 = EDGE_CURVE('',#66,#58,#68,.T.);
#66 = VERTEX_POINT('',#67);
#67 = CARTESIAN_POINT('',(107.35319946218,-13.64101321166,
    138.27092090729));
#68 = B_SPLINE_CURVE_WITH_KNOTS('',1,(#69,#70),.UNSPECIFIED.,.F.,.F.,(2,
    2),(-0.,150.),.PIECEWISE_BEZIER_KNOTS.);
#69 = CARTESIAN_POINT('',(107.35319946218,-13.64101321166,
    138.27092090729));
#70 = CARTESIAN_POINT('',(-107.3531994621,-13.64101321166,
    138.27092090729));
#71 = ORIENTED_EDGE('',*,*,#72,.F.);
#72 = EDGE_CURVE('',#31,#66,#73,.T.);
#73 = ( BOUNDED_CURVE() B_SPLINE_CURVE(2,(#74,#75,#76),.UNSPECIFIED.,.F.
,.F.) B_SPLINE_CURVE_WITH_KNOTS((3,3),(0.,1.570796326795),
.PIECEWISE_BEZIER_KNOTS.) CURVE() GEOMETRIC_REPRESENTATION_ITEM() 
RATIONAL_B_SPLINE_CURVE((1.,0.707106781187,1.)) REPRESENTATION_ITEM('') 
  );
#74 = CARTESIAN_POINT('',(107.35319946218,-6.484133247516,
    145.42780087144));
#75 = CARTESIAN_POINT('',(107.35319946218,-13.64101321166,
    145.42780087144));
#76 = CARTESIAN_POINT('',(107.35319946218,-13.64101321166,
    138.27092090729));
#77 = ORIENTED_EDGE('',*,*,#30,.T.);
#78 = ( BOUNDED_SURFACE() B_SPLINE_SURFACE(2,1,(
    (#79,#80)
    ,(#81,#82)
,(#83,#84
  )),.UNSPECIFIED.,.F.,.F.,.F.) B_SPLINE_SURFACE_WITH_KNOTS((3,3),(2,2),
  (4.712388980385,6.28318530718),(0.,150.),.PIECEWISE_BEZIER_KNOTS.) 
GEOMETRIC_REPRESENTATION_ITEM() RATIONAL_B_SPLINE_SURFACE((
    (1.,1.)
    ,(0.707106781187,0.707106781187)
,(1.,1.))) REPRESENTATION_ITEM('') SURFACE() );
#79 = CARTESIAN_POINT('',(107.35319946218,-13.64101321166,
    138.27092090729));
#80 = CARTESIAN_POINT('',(-107.3531994621,-13.64101321166,
    138.27092090729));
#81 = CARTESIAN_POINT('',(107.35319946218,-13.64101321166,
    145.42780087144));
#82 = CARTESIAN_POINT('',(-107.3531994621,-13.64101321166,
    145.42780087144));
#83 = CARTESIAN_POINT('',(107.35319946218,-6.484133247516,
    145.42780087144));
#84 = CARTESIAN_POINT('',(-107.3531994621,-6.484133247516,
    145.42780087144));
#85 = ADVANCED_FACE('',(#86),#108,.F.);
#86 = FACE_BOUND('',#87,.T.);
#87 = EDGE_LOOP('',(#88,#95,#102,#107));
#88 = ORIENTED_EDGE('',*,*,#89,.T.);
#89 = EDGE_CURVE('',#58,#90,#92,.T.);
#90 = VERTEX_POINT('',#91);
#91 = CARTESIAN_POINT('',(-107.3531994621,-13.64101321166,
    20.797893175808));
#92 = B_SPLINE_CURVE_WITH_KNOTS('',1,(#93,#94),.UNSPECIFIED.,.F.,.F.,(2,
    2),(-82.07,1.7763568394E-15),.PIECEWISE_BEZIER_KNOTS.);
#93 = CARTESIAN_POINT('',(-107.3531994621,-13.64101321166,
    138.27092090729));
#94 = CARTESIAN_POINT('',(-107.3531994621,-13.64101321166,
    20.797893175808));
#95 = ORIENTED_EDGE('',*,*,#96,.F.);
#96 = EDGE_CURVE('',#97,#90,#99,.T.);
#97 = VERTEX_POINT('',#98);
#98 = CARTESIAN_POINT('',(107.35319946218,-13.64101321166,
    20.797893175808));
#99 = B_SPLINE_CURVE_WITH_KNOTS('',1,(#100,#101),.UNSPECIFIED.,.F.,.F.,(
    2,2),(-0.,150.),.PIECEWISE_BEZIER_KNOTS.);
#100 = CARTESIAN_POINT('',(107.35319946218,-13.64101321166,
    20.797893175808));
#101 = CARTESIAN_POINT('',(-107.3531994621,-13.64101321166,
    20.797893175808));
#102 = ORIENTED_EDGE('',*,*,#103,.F.);
#103 = EDGE_CURVE('',#66,#97,#104,.T.);
#104 = B_SPLINE_CURVE_WITH_KNOTS('',1,(#105,#106),.UNSPECIFIED.,.F.,.F.,
  (2,2),(-82.07,1.7763568394E-15),.PIECEWISE_BEZIER_KNOTS.);
#105 = CARTESIAN_POINT('',(107.35319946218,-13.64101321166,
    138.27092090729));
#106 = CARTESIAN_POINT('',(107.35319946218,-13.64101321166,
    20.797893175808));
#107 = ORIENTED_EDGE('',*,*,#65,.T.);
#108 = B_SPLINE_SURFACE_WITH_KNOTS('',1,1,(
    (#109,#110)
    ,(#111,#112
    )),.UNSPECIFIED.,.F.,.F.,.F.,(2,2),(2,2),(-1.7763568394E-15,82.07),(
    -150.,0.),.PIECEWISE_BEZIER_KNOTS.);
#109 = CARTESIAN_POINT('',(-107.3531994621,-13.64101321166,
    20.797893175808));
#110 = CARTESIAN_POINT('',(107.35319946218,-13.64101321166,
    20.797893175808));
#111 = CARTESIAN_POINT('',(-107.3531994621,-13.64101321166,
    138.27092090729));
#112 = CARTESIAN_POINT('',(107.35319946218,-13.64101321166,
    138.27092090729));
#113 = ADVANCED_FACE('',(#114),#138,.F.);
#114 = FACE_BOUND('',#115,.F.);
#115 = EDGE_LOOP('',(#116,#117,#125,#132));
#116 = ORIENTED_EDGE('',*,*,#96,.F.);
#117 = ORIENTED_EDGE('',*,*,#118,.T.);
#118 = EDGE_CURVE('',#97,#119,#121,.T.);
#119 = VERTEX_POINT('',#120);
#120 = CARTESIAN_POINT('',(107.35319946218,-20.7978931758,
    13.641013211662));
#121 = ( BOUNDED_CURVE() B_SPLINE_CURVE(2,(#122,#123,#124),
.UNSPECIFIED.,.F.,.F.) B_SPLINE_CURVE_WITH_KNOTS((3,3),(4.712388980385,
6.28318530718),.PIECEWISE_BEZIER_KNOTS.) CURVE() 
GEOMETRIC_REPRESENTATION_ITEM() RATIONAL_B_SPLINE_CURVE((1.,
0.707106781187,1.)) REPRESENTATION_ITEM('') );
#122 = CARTESIAN_POINT('',(107.35319946218,-13.64101321166,
    20.797893175808));
#123 = CARTESIAN_POINT('',(107.35319946218,-13.64101321166,
    13.641013211662));
#124 = CARTESIAN_POINT('',(107.35319946218,-20.7978931758,
    13.641013211662));
#125 = ORIENTED_EDGE('',*,*,#126,.T.);
#126 = EDGE_CURVE('',#119,#127,#129,.T.);
#127 = VERTEX_POINT('',#128);
#128 = CARTESIAN_POINT('',(-107.3531994621,-20.7978931758,
    13.641013211662));
#129 = B_SPLINE_CURVE_WITH_KNOTS('',1,(#130,#131),.UNSPECIFIED.,.F.,.F.,
  (2,2),(-0.,150.),.PIECEWISE_BEZIER_KNOTS.);
#130 = CARTESIAN_POINT('',(107.35319946218,-20.7978931758,
    13.641013211662));
#131 = CARTESIAN_POINT('',(-107.3531994621,-20.7978931758,
    13.641013211662));
#132 = ORIENTED_EDGE('',*,*,#133,.F.);
#133 = EDGE_CURVE('',#90,#127,#134,.T.);
#134 = ( BOUNDED_CURVE() B_SPLINE_CURVE(2,(#135,#136,#137),
.UNSPECIFIED.,.F.,.F.) B_SPLINE_CURVE_WITH_KNOTS((3,3),(4.712388980385,
6.28318530718),.PIECEWISE_BEZIER_KNOTS.) CURVE() 
GEOMETRIC_REPRESENTATION_ITEM() RATIONAL_B_SPLINE_CURVE((1.,
0.707106781187,1.)) REPRESENTATION_ITEM('') );
#135 = CARTESIAN_POINT('',(-107.3531994621,-13.64101321166,
    20.797893175808));
#136 = CARTESIAN_POINT('',(-107.3531994621,-13.64101321166,
    13.641013211662));
#137 = CARTESIAN_POINT('',(-107.3531994621,-20.7978931758,
    13.641013211662));
#138 = ( BOUNDED_SURFACE() B_SPLINE_SURFACE(2,1,(
    (#139,#140)
    ,(#141,#142)
,(#143,#144
    )),.UNSPECIFIED.,.F.,.F.,.F.) B_SPLINE_SURFACE_WITH_KNOTS((3,3),(2,2
    ),(1.570796326795,3.14159265359),(0.,150.),
.PIECEWISE_BEZIER_KNOTS.) GEOMETRIC_REPRESENTATION_ITEM() 
RATIONAL_B_SPLINE_SURFACE((
    (1.,1.)
    ,(0.707106781187,0.707106781187)
,(1.,1.))) REPRESENTATION_ITEM('') SURFACE() );
#139 = CARTESIAN_POINT('',(107.35319946218,-13.64101321166,
    20.797893175808));
#140 = CARTESIAN_POINT('',(-107.3531994621,-13.64101321166,
    20.797893175808));
#141 = CARTESIAN_POINT('',(107.35319946218,-13.64101321166,
    13.641013211662));
#142 = CARTESIAN_POINT('',(-107.3531994621,-13.64101321166,
    13.641013211662));
#143 = CARTESIAN_POINT('',(107.35319946218,-20.7978931758,
    13.641013211662));
#144 = CARTESIAN_POINT('',(-107.3531994621,-20.7978931758,
    13.641013211662));
#145 = ADVANCED_FACE('',(#146),#168,.F.);
#146 = FACE_BOUND('',#147,.T.);
#147 = EDGE_LOOP('',(#148,#155,#162,#167));
#148 = ORIENTED_EDGE('',*,*,#149,.T.);
#149 = EDGE_CURVE('',#127,#150,#152,.T.);
#150 = VERTEX_POINT('',#151);
#151 = CARTESIAN_POINT('',(-107.3531994621,-138.2709209072,
    13.641013211662));
#152 = B_SPLINE_CURVE_WITH_KNOTS('',1,(#153,#154),.UNSPECIFIED.,.F.,.F.,
  (2,2),(-82.07,2.84217094304E-14),.PIECEWISE_BEZIER_KNOTS.);
#153 = CARTESIAN_POINT('',(-107.3531994621,-20.7978931758,
    13.641013211662));
#154 = CARTESIAN_POINT('',(-107.3531994621,-138.2709209072,
    13.641013211662));
#155 = ORIENTED_EDGE('',*,*,#156,.F.);
#156 = EDGE_CURVE('',#157,#150,#159,.T.);
#157 = VERTEX_POINT('',#158);
#158 = CARTESIAN_POINT('',(107.35319946218,-138.2709209072,
    13.641013211662));
#159 = B_SPLINE_CURVE_WITH_KNOTS('',1,(#160,#161),.UNSPECIFIED.,.F.,.F.,
  (2,2),(-0.,150.),.PIECEWISE_BEZIER_KNOTS.);
#160 = CARTESIAN_POINT('',(107.35319946218,-138.2709209072,
    13.641013211662));
#161 = CARTESIAN_POINT('',(-107.3531994621,-138.2709209072,
    13.641013211662));
#162 = ORIENTED_EDGE('',*,*,#163,.F.);
#163 = EDGE_CURVE('',#119,#157,#164,.T.);
#164 = B_SPLINE_CURVE_WITH_KNOTS('',1,(#165,#166),.UNSPECIFIED.,.F.,.F.,
  (2,2),(-82.07,2.84217094304E-14),.PIECEWISE_BEZIER_KNOTS.);
#165 = CARTESIAN_POINT('',(107.35319946218,-20.7978931758,
    13.641013211662));
#166 = CARTESIAN_POINT('',(107.35319946218,-138.2709209072,
    13.641013211662));
#167 = ORIENTED_EDGE('',*,*,#126,.T.);
#168 = B_SPLINE_SURFACE_WITH_KNOTS('',1,1,(
    (#169,#170)
    ,(#171,#172
    )),.UNSPECIFIED.,.F.,.F.,.F.,(2,2),(2,2),(-0.,150.),(
    -2.84217094304E-14,82.07),.PIECEWISE_BEZIER_KNOTS.);
#169 = CARTESIAN_POINT('',(107.35319946218,-138.2709209072,
    13.641013211662));
#170 = CARTESIAN_POINT('',(107.35319946218,-20.7978931758,
    13.641013211662));
#171 = CARTESIAN_POINT('',(-107.3531994621,-138.2709209072,
    13.641013211662));
#172 = CARTESIAN_POINT('',(-107.3531994621,-20.7978931758,
    13.641013211662));
#173 = ADVANCED_FACE('',(#174),#198,.T.);
#174 = FACE_BOUND('',#175,.T.);
#175 = EDGE_LOOP('',(#176,#184,#191,#197));
#176 = ORIENTED_EDGE('',*,*,#177,.T.);
#177 = EDGE_CURVE('',#150,#178,#180,.T.);
#178 = VERTEX_POINT('',#179);
#179 = CARTESIAN_POINT('',(-107.3531994621,-145.4278008714,
    6.484133247516));
#180 = ( BOUNDED_CURVE() B_SPLINE_CURVE(2,(#181,#182,#183),
.UNSPECIFIED.,.F.,.F.) B_SPLINE_CURVE_WITH_KNOTS((3,3),(0.,
1.570796326795),.PIECEWISE_BEZIER_KNOTS.) CURVE() 
GEOMETRIC_REPRESENTATION_ITEM() RATIONAL_B_SPLINE_CURVE((1.,
0.707106781187,1.)) REPRESENTATION_ITEM('') );
#181 = CARTESIAN_POINT('',(-107.3531994621,-138.2709209072,
    13.641013211662));
#182 = CARTESIAN_POINT('',(-107.3531994621,-145.4278008714,
    13.641013211662));
#183 = CARTESIAN_POINT('',(-107.3531994621,-145.4278008714,
    6.484133247516));
#184 = ORIENTED_EDGE('',*,*,#185,.F.);
#185 = EDGE_CURVE('',#186,#178,#188,.T.);
#186 = VERTEX_POINT('',#187);
#187 = CARTESIAN_POINT('',(107.35319946218,-145.4278008714,
    6.484133247516));
#188 = B_SPLINE_CURVE_WITH_KNOTS('',1,(#189,#190),.UNSPECIFIED.,.F.,.F.,
  (2,2),(-0.,150.),.PIECEWISE_BEZIER_KNOTS.);
#189 = CARTESIAN_POINT('',(107.35319946218,-145.4278008714,
    6.484133247516));
#190 = CARTESIAN_POINT('',(-107.3531994621,-145.4278008714,
    6.484133247516));
#191 = ORIENTED_EDGE('',*,*,#192,.F.);
#192 = EDGE_CURVE('',#157,#186,#193,.T.);
#193 = ( BOUNDED_CURVE() B_SPLINE_CURVE(2,(#194,#195,#196),
.UNSPECIFIED.,.F.,.F.) B_SPLINE_CURVE_WITH_KNOTS((3,3),(0.,
1.570796326795),.PIECEWISE_BEZIER_KNOTS.) CURVE() 
GEOMETRIC_REPRESENTATION_ITEM() RATIONAL_B_SPLINE_CURVE((1.,
0.707106781187,1.)) REPRESENTATION_ITEM('') );
#194 = CARTESIAN_POINT('',(107.35319946218,-138.2709209072,
    13.641013211662));
#195 = CARTESIAN_POINT('',(107.35319946218,-145.4278008714,
    13.641013211662));
#196 = CARTESIAN_POINT('',(107.35319946218,-145.4278008714,
    6.484133247516));
#197 = ORIENTED_EDGE('',*,*,#156,.T.);
#198 = ( BOUNDED_SURFACE() B_SPLINE_SURFACE(2,1,(
    (#199,#200)
    ,(#201,#202)
,(#203,#204
    )),.UNSPECIFIED.,.F.,.F.,.F.) B_SPLINE_SURFACE_WITH_KNOTS((3,3),(2,2
    ),(4.712388980385,6.28318530718),(0.,150.),
.PIECEWISE_BEZIER_KNOTS.) GEOMETRIC_REPRESENTATION_ITEM() 
RATIONAL_B_SPLINE_SURFACE((
    (1.,1.)
    ,(0.707106781187,0.707106781187)
,(1.,1.))) REPRESENTATION_ITEM('') SURFACE() );
#199 = CARTESIAN_POINT('',(107.35319946218,-145.4278008714,
    6.484133247516));
#200 = CARTESIAN_POINT('',(-107.3531994621,-145.4278008714,
    6.484133247516));
#201 = CARTESIAN_POINT('',(107.35319946218,-145.4278008714,
    13.641013211662));
#202 = CARTESIAN_POINT('',(-107.3531994621,-145.4278008714,
    13.641013211662));
#203 = CARTESIAN_POINT('',(107.35319946218,-138.2709209072,
    13.641013211662));
#204 = CARTESIAN_POINT('',(-107.3531994621,-138.2709209072,
    13.641013211662));
#205 = ADVANCED_FACE('',(#206),#228,.F.);
#206 = FACE_BOUND('',#207,.T.);
#207 = EDGE_LOOP('',(#208,#215,#222,#227));
#208 = ORIENTED_EDGE('',*,*,#209,.T.);
#209 = EDGE_CURVE('',#178,#210,#212,.T.);
#210 = VERTEX_POINT('',#211);
#211 = CARTESIAN_POINT('',(-107.3531994621,-145.4278008714,
    -1.780976908443E-14));
#212 = B_SPLINE_CURVE_WITH_KNOTS('',1,(#213,#214),.UNSPECIFIED.,.F.,.F.,
  (2,2),(-4.53,-0.),.PIECEWISE_BEZIER_KNOTS.);
#213 = CARTESIAN_POINT('',(-107.3531994621,-145.4278008714,
    6.484133247516));
#214 = CARTESIAN_POINT('',(-107.3531994621,-145.4278008714,
    -1.780976908443E-14));
#215 = ORIENTED_EDGE('',*,*,#216,.F.);
#216 = EDGE_CURVE('',#217,#210,#219,.T.);
#217 = VERTEX_POINT('',#218);
#218 = CARTESIAN_POINT('',(107.35319946218,-145.4278008714,
    -1.780976908443E-14));
#219 = B_SPLINE_CURVE_WITH_KNOTS('',1,(#220,#221),.UNSPECIFIED.,.F.,.F.,
  (2,2),(-0.,150.),.PIECEWISE_BEZIER_KNOTS.);
#220 = CARTESIAN_POINT('',(107.35319946218,-145.4278008714,
    -1.780976908443E-14));
#221 = CARTESIAN_POINT('',(-107.3531994621,-145.4278008714,
    -1.780976908443E-14));
#222 = ORIENTED_EDGE('',*,*,#223,.F.);
#223 = EDGE_CURVE('',#186,#217,#224,.T.);
#224 = B_SPLINE_CURVE_WITH_KNOTS('',1,(#225,#226),.UNSPECIFIED.,.F.,.F.,
  (2,2),(-4.53,-0.),.PIECEWISE_BEZIER_KNOTS.);
#225 = CARTESIAN_POINT('',(107.35319946218,-145.4278008714,
    6.484133247516));
#226 = CARTESIAN_POINT('',(107.35319946218,-145.4278008714,
    -1.780976908443E-14));
#227 = ORIENTED_EDGE('',*,*,#185,.T.);
#228 = B_SPLINE_SURFACE_WITH_KNOTS('',1,1,(
    (#229,#230)
    ,(#231,#232
    )),.UNSPECIFIED.,.F.,.F.,.F.,(2,2),(2,2),(0.,4.53),(-150.,0.),
  .PIECEWISE_BEZIER_KNOTS.);
#229 = CARTESIAN_POINT('',(-107.3531994621,-145.4278008714,
    -1.780976908443E-14));
#230 = CARTESIAN_POINT('',(107.35319946218,-145.4278008714,
    -1.780976908443E-14));
#231 = CARTESIAN_POINT('',(-107.3531994621,-145.4278008714,
    6.484133247516));
#232 = CARTESIAN_POINT('',(107.35319946218,-145.4278008714,
    6.484133247516));
#233 = ADVANCED_FACE('',(#234),#256,.F.);
#234 = FACE_BOUND('',#235,.T.);
#235 = EDGE_LOOP('',(#236,#243,#250,#255));
#236 = ORIENTED_EDGE('',*,*,#237,.T.);
#237 = EDGE_CURVE('',#210,#238,#240,.T.);
#238 = VERTEX_POINT('',#239);
#239 = CARTESIAN_POINT('',(-107.3531994621,0.,0.));
#240 = B_SPLINE_CURVE_WITH_KNOTS('',1,(#241,#242),.UNSPECIFIED.,.F.,.F.,
  (2,2),(-101.6,0.),.PIECEWISE_BEZIER_KNOTS.);
#241 = CARTESIAN_POINT('',(-107.3531994621,-145.4278008714,
    -1.780976908443E-14));
#242 = CARTESIAN_POINT('',(-107.3531994621,0.,0.));
#243 = ORIENTED_EDGE('',*,*,#244,.F.);
#244 = EDGE_CURVE('',#245,#238,#247,.T.);
#245 = VERTEX_POINT('',#246);
#246 = CARTESIAN_POINT('',(107.35319946218,0.,0.));
#247 = B_SPLINE_CURVE_WITH_KNOTS('',1,(#248,#249),.UNSPECIFIED.,.F.,.F.,
  (2,2),(-0.,150.),.PIECEWISE_BEZIER_KNOTS.);
#248 = CARTESIAN_POINT('',(107.35319946218,0.,0.));
#249 = CARTESIAN_POINT('',(-107.3531994621,0.,0.));
#250 = ORIENTED_EDGE('',*,*,#251,.F.);
#251 = EDGE_CURVE('',#217,#245,#252,.T.);
#252 = B_SPLINE_CURVE_WITH_KNOTS('',1,(#253,#254),.UNSPECIFIED.,.F.,.F.,
  (2,2),(-101.6,0.),.PIECEWISE_BEZIER_KNOTS.);
#253 = CARTESIAN_POINT('',(107.35319946218,-145.4278008714,
    -1.780976908443E-14));
#254 = CARTESIAN_POINT('',(107.35319946218,0.,0.));
#255 = ORIENTED_EDGE('',*,*,#216,.T.);
#256 = B_SPLINE_SURFACE_WITH_KNOTS('',1,1,(
    (#257,#258)
    ,(#259,#260
    )),.UNSPECIFIED.,.F.,.F.,.F.,(2,2),(2,2),(-0.,101.6),(-150.,0.),
  .PIECEWISE_BEZIER_KNOTS.);
#257 = CARTESIAN_POINT('',(-107.3531994621,0.,0.));
#258 = CARTESIAN_POINT('',(107.35319946218,0.,0.));
#259 = CARTESIAN_POINT('',(-107.3531994621,-145.4278008714,
    -1.780976908443E-14));
#260 = CARTESIAN_POINT('',(107.35319946218,-145.4278008714,
    -1.780976908443E-14));
#261 = ADVANCED_FACE('',(#262),#276,.F.);
#262 = FACE_BOUND('',#263,.T.);
#263 = EDGE_LOOP('',(#264,#269,#270,#275));
#264 = ORIENTED_EDGE('',*,*,#265,.T.);
#265 = EDGE_CURVE('',#238,#22,#266,.T.);
#266 = B_SPLINE_CURVE_WITH_KNOTS('',1,(#267,#268),.UNSPECIFIED.,.F.,.F.,
  (2,2),(-101.6,0.),.PIECEWISE_BEZIER_KNOTS.);
#267 = CARTESIAN_POINT('',(-107.3531994621,0.,0.));
#268 = CARTESIAN_POINT('',(-107.3531994621,0.,145.42780087144));
#269 = ORIENTED_EDGE('',*,*,#44,.F.);
#270 = ORIENTED_EDGE('',*,*,#271,.F.);
#271 = EDGE_CURVE('',#245,#38,#272,.T.);
#272 = B_SPLINE_CURVE_WITH_KNOTS('',1,(#273,#274),.UNSPECIFIED.,.F.,.F.,
  (2,2),(-101.6,0.),.PIECEWISE_BEZIER_KNOTS.);
#273 = CARTESIAN_POINT('',(107.35319946218,0.,0.));
#274 = CARTESIAN_POINT('',(107.35319946218,0.,145.42780087144));
#275 = ORIENTED_EDGE('',*,*,#244,.T.);
#276 = B_SPLINE_SURFACE_WITH_KNOTS('',1,1,(
    (#277,#278)
    ,(#279,#280
    )),.UNSPECIFIED.,.F.,.F.,.F.,(2,2),(2,2),(-0.,101.6),(-150.,0.),
  .PIECEWISE_BEZIER_KNOTS.);
#277 = CARTESIAN_POINT('',(-107.3531994621,0.,145.42780087144));
#278 = CARTESIAN_POINT('',(107.35319946218,0.,145.42780087144));
#279 = CARTESIAN_POINT('',(-107.3531994621,0.,0.));
#280 = CARTESIAN_POINT('',(107.35319946218,0.,0.));
#281 = ADVANCED_FACE('',(#282),#293,.F.);
#282 = FACE_BOUND('',#283,.T.);
#283 = EDGE_LOOP('',(#284,#285,#286,#287,#288,#289,#290,#291,#292));
#284 = ORIENTED_EDGE('',*,*,#37,.T.);
#285 = ORIENTED_EDGE('',*,*,#72,.T.);
#286 = ORIENTED_EDGE('',*,*,#103,.T.);
#287 = ORIENTED_EDGE('',*,*,#118,.T.);
#288 = ORIENTED_EDGE('',*,*,#163,.T.);
#289 = ORIENTED_EDGE('',*,*,#192,.T.);
#290 = ORIENTED_EDGE('',*,*,#223,.T.);
#291 = ORIENTED_EDGE('',*,*,#251,.T.);
#292 = ORIENTED_EDGE('',*,*,#271,.T.);
#293 = B_SPLINE_SURFACE_WITH_KNOTS('',1,1,(
    (#294,#295)
    ,(#296,#297
    )),.UNSPECIFIED.,.F.,.F.,.F.,(2,2),(2,2),(-4.53,97.07),(-5.,96.6),
  .PIECEWISE_BEZIER_KNOTS.);
#294 = CARTESIAN_POINT('',(107.35319946218,-145.4278008714,
    -1.779844174231E-14));
#295 = CARTESIAN_POINT('',(107.35319946218,0.,-1.779844174231E-14));
#296 = CARTESIAN_POINT('',(107.35319946218,-145.4278008714,
    145.42780087144));
#297 = CARTESIAN_POINT('',(107.35319946218,0.,145.42780087144));
#298 = ADVANCED_FACE('',(#299),#310,.T.);
#299 = FACE_BOUND('',#300,.T.);
#300 = EDGE_LOOP('',(#301,#302,#303,#304,#305,#306,#307,#308,#309));
#301 = ORIENTED_EDGE('',*,*,#21,.F.);
#302 = ORIENTED_EDGE('',*,*,#265,.F.);
#303 = ORIENTED_EDGE('',*,*,#237,.F.);
#304 = ORIENTED_EDGE('',*,*,#209,.F.);
#305 = ORIENTED_EDGE('',*,*,#177,.F.);
#306 = ORIENTED_EDGE('',*,*,#149,.F.);
#307 = ORIENTED_EDGE('',*,*,#133,.F.);
#308 = ORIENTED_EDGE('',*,*,#89,.F.);
#309 = ORIENTED_EDGE('',*,*,#57,.F.);
#310 = B_SPLINE_SURFACE_WITH_KNOTS('',1,1,(
    (#311,#312)
    ,(#313,#314
    )),.UNSPECIFIED.,.F.,.F.,.F.,(2,2),(2,2),(-4.53,97.07),(-5.,96.6),
  .PIECEWISE_BEZIER_KNOTS.);
#311 = CARTESIAN_POINT('',(-107.3531994621,-145.4278008714,
    -1.779844174231E-14));
#312 = CARTESIAN_POINT('',(-107.3531994621,0.,-1.779844174231E-14));
#313 = CARTESIAN_POINT('',(-107.3531994621,-145.4278008714,
    145.42780087144));
#314 = CARTESIAN_POINT('',(-107.3531994621,0.,145.42780087144));
#315 = ( GEOMETRIC_REPRESENTATION_CONTEXT(3) 
GLOBAL_UNCERTAINTY_ASSIGNED_CONTEXT((#319)) GLOBAL_UNIT_ASSIGNED_CONTEXT
((#316,#317,#318)) REPRESENTATION_CONTEXT('Context #1',
  '3D Context with UNIT and UNCERTAINTY') );
#316 = ( LENGTH_UNIT() NAMED_UNIT(*) SI_UNIT(.MILLI.,.METRE.) );
#317 = ( NAMED_UNIT(*) PLANE_ANGLE_UNIT() SI_UNIT($,.RADIAN.) );
#318 = ( NAMED_UNIT(*) SI_UNIT($,.STERADIAN.) SOLID_ANGLE_UNIT() );
#319 = UNCERTAINTY_MEASURE_WITH_UNIT(LENGTH_MEASURE(2.E-07),#316,
  'distance_accuracy_value','confusion accuracy');
#320 = PRODUCT_RELATED_PRODUCT_CATEGORY('part',$,(#7));
ENDSEC;
END-ISO-10303-21;
