ISO-10303-21;
HEADER;
FILE_DESCRIPTION(('FreeCAD Model'),'2;1');
FILE_NAME('Open CASCADE Shape Model','2025-05-09T15:14:25',('FreeCAD'),(
    'FreeCAD'),'Open CASCADE STEP processor 7.6','FreeCAD','Unknown');
FILE_SCHEMA(('AUTOMOTIVE_DESIGN { 1 0 10303 214 1 1 1 1 }'));
ENDSEC;
DATA;
#1 = APPLICATION_PROTOCOL_DEFINITION('international standard',
  'automotive_design',2000,#2);
#2 = APPLICATION_CONTEXT(
  'core data for automotive mechanical design processes');
#3 = SHAPE_DEFINITION_REPRESENTATION(#4,#10);
#4 = PRODUCT_DEFINITION_SHAPE('','',#5);
#5 = PRODUCT_DEFINITION('design','',#6,#9);
#6 = PRODUCT_DEFINITION_FORMATION('','',#7);
#7 = PRODUCT('Open CASCADE STEP translator 7.6 1',
  'Open CASCADE STEP translator 7.6 1','',(#8));
#8 = PRODUCT_CONTEXT('',#2,'mechanical');
#9 = PRODUCT_DEFINITION_CONTEXT('part definition',#2,'design');
#10 = ADVANCED_BREP_SHAPE_REPRESENTATION('',(#11,#15),#413);
#11 = AXIS2_PLACEMENT_3D('',#12,#13,#14);
#12 = CARTESIAN_POINT('',(0.,0.,0.));
#13 = DIRECTION('',(0.,0.,1.));
#14 = DIRECTION('',(1.,0.,-0.));
#15 = MANIFOLD_SOLID_BREP('',#16);
#16 = CLOSED_SHELL('',(#17,#115,#213,#235,#251,#269,#285,#303,#319,#337,
    #349,#369,#385,#401));
#17 = ADVANCED_FACE('',(#18,#80),#110,.F.);
#18 = FACE_BOUND('',#19,.T.);
#19 = EDGE_LOOP('',(#20,#30,#37,#45,#52,#60,#67,#75));
#20 = ORIENTED_EDGE('',*,*,#21,.T.);
#21 = EDGE_CURVE('',#22,#24,#26,.T.);
#22 = VERTEX_POINT('',#23);
#23 = CARTESIAN_POINT('',(-40.92273563436,491.07282761237,38.19455325874
    ));
#24 = VERTEX_POINT('',#25);
#25 = CARTESIAN_POINT('',(-38.19455325874,491.07282761237,
    40.922735634364));
#26 = ( BOUNDED_CURVE() B_SPLINE_CURVE(2,(#27,#28,#29),.UNSPECIFIED.,.F.
,.F.) B_SPLINE_CURVE_WITH_KNOTS((3,3),(1.570796326795,3.14159265359),
.PIECEWISE_BEZIER_KNOTS.) CURVE() GEOMETRIC_REPRESENTATION_ITEM() 
RATIONAL_B_SPLINE_CURVE((1.,0.707106781187,1.)) REPRESENTATION_ITEM('') 
  );
#27 = CARTESIAN_POINT('',(-40.92273563436,491.07282761237,38.19455325874
    ));
#28 = CARTESIAN_POINT('',(-40.92273563436,491.07282761237,
    40.922735634364));
#29 = CARTESIAN_POINT('',(-38.19455325874,491.07282761237,
    40.922735634364));
#30 = ORIENTED_EDGE('',*,*,#31,.T.);
#31 = EDGE_CURVE('',#24,#32,#34,.T.);
#32 = VERTEX_POINT('',#33);
#33 = CARTESIAN_POINT('',(38.19455325874,491.07282761237,40.922735634364
    ));
#34 = B_SPLINE_CURVE_WITH_KNOTS('',1,(#35,#36),.UNSPECIFIED.,.F.,.F.,(2,
    2),(0.,56.),.PIECEWISE_BEZIER_KNOTS.);
#35 = CARTESIAN_POINT('',(-38.19455325874,491.07282761237,
    40.922735634364));
#36 = CARTESIAN_POINT('',(38.19455325874,491.07282761237,40.922735634364
    ));
#37 = ORIENTED_EDGE('',*,*,#38,.T.);
#38 = EDGE_CURVE('',#32,#39,#41,.T.);
#39 = VERTEX_POINT('',#40);
#40 = CARTESIAN_POINT('',(40.922735634364,491.07282761237,38.19455325874
    ));
#41 = ( BOUNDED_CURVE() B_SPLINE_CURVE(2,(#42,#43,#44),.UNSPECIFIED.,.F.
,.F.) B_SPLINE_CURVE_WITH_KNOTS((3,3),(0.,1.570796326795),
.PIECEWISE_BEZIER_KNOTS.) CURVE() GEOMETRIC_REPRESENTATION_ITEM() 
RATIONAL_B_SPLINE_CURVE((1.,0.707106781187,1.)) REPRESENTATION_ITEM('') 
  );
#42 = CARTESIAN_POINT('',(38.19455325874,491.07282761237,40.922735634364
    ));
#43 = CARTESIAN_POINT('',(40.922735634364,491.07282761237,
    40.922735634364));
#44 = CARTESIAN_POINT('',(40.922735634364,491.07282761237,38.19455325874
    ));
#45 = ORIENTED_EDGE('',*,*,#46,.T.);
#46 = EDGE_CURVE('',#39,#47,#49,.T.);
#47 = VERTEX_POINT('',#48);
#48 = CARTESIAN_POINT('',(40.922735634364,491.07282761237,
    -38.19455325874));
#49 = B_SPLINE_CURVE_WITH_KNOTS('',1,(#50,#51),.UNSPECIFIED.,.F.,.F.,(2,
    2),(0.,56.),.PIECEWISE_BEZIER_KNOTS.);
#50 = CARTESIAN_POINT('',(40.922735634364,491.07282761237,38.19455325874
    ));
#51 = CARTESIAN_POINT('',(40.922735634364,491.07282761237,
    -38.19455325874));
#52 = ORIENTED_EDGE('',*,*,#53,.T.);
#53 = EDGE_CURVE('',#47,#54,#56,.T.);
#54 = VERTEX_POINT('',#55);
#55 = CARTESIAN_POINT('',(38.19455325874,491.07282761237,-40.92273563436
    ));
#56 = ( BOUNDED_CURVE() B_SPLINE_CURVE(2,(#57,#58,#59),.UNSPECIFIED.,.F.
,.F.) B_SPLINE_CURVE_WITH_KNOTS((3,3),(4.712388980385,6.28318530718),
.PIECEWISE_BEZIER_KNOTS.) CURVE() GEOMETRIC_REPRESENTATION_ITEM() 
RATIONAL_B_SPLINE_CURVE((1.,0.707106781187,1.)) REPRESENTATION_ITEM('') 
  );
#57 = CARTESIAN_POINT('',(40.922735634364,491.07282761237,
    -38.19455325874));
#58 = CARTESIAN_POINT('',(40.922735634364,491.07282761237,
    -40.92273563436));
#59 = CARTESIAN_POINT('',(38.19455325874,491.07282761237,-40.92273563436
    ));
#60 = ORIENTED_EDGE('',*,*,#61,.T.);
#61 = EDGE_CURVE('',#54,#62,#64,.T.);
#62 = VERTEX_POINT('',#63);
#63 = CARTESIAN_POINT('',(-38.19455325874,491.07282761237,
    -40.92273563436));
#64 = B_SPLINE_CURVE_WITH_KNOTS('',1,(#65,#66),.UNSPECIFIED.,.F.,.F.,(2,
    2),(-56.,-0.),.PIECEWISE_BEZIER_KNOTS.);
#65 = CARTESIAN_POINT('',(38.19455325874,491.07282761237,-40.92273563436
    ));
#66 = CARTESIAN_POINT('',(-38.19455325874,491.07282761237,
    -40.92273563436));
#67 = ORIENTED_EDGE('',*,*,#68,.T.);
#68 = EDGE_CURVE('',#62,#69,#71,.T.);
#69 = VERTEX_POINT('',#70);
#70 = CARTESIAN_POINT('',(-40.92273563436,491.07282761237,
    -38.19455325874));
#71 = ( BOUNDED_CURVE() B_SPLINE_CURVE(2,(#72,#73,#74),.UNSPECIFIED.,.F.
,.F.) B_SPLINE_CURVE_WITH_KNOTS((3,3),(3.14159265359,4.712388980385),
.PIECEWISE_BEZIER_KNOTS.) CURVE() GEOMETRIC_REPRESENTATION_ITEM() 
RATIONAL_B_SPLINE_CURVE((1.,0.707106781187,1.)) REPRESENTATION_ITEM('') 
  );
#72 = CARTESIAN_POINT('',(-38.19455325874,491.07282761237,
    -40.92273563436));
#73 = CARTESIAN_POINT('',(-40.92273563436,491.07282761237,
    -40.92273563436));
#74 = CARTESIAN_POINT('',(-40.92273563436,491.07282761237,
    -38.19455325874));
#75 = ORIENTED_EDGE('',*,*,#76,.T.);
#76 = EDGE_CURVE('',#69,#22,#77,.T.);
#77 = B_SPLINE_CURVE_WITH_KNOTS('',1,(#78,#79),.UNSPECIFIED.,.F.,.F.,(2,
    2),(-56.,0.),.PIECEWISE_BEZIER_KNOTS.);
#78 = CARTESIAN_POINT('',(-40.92273563436,491.07282761237,
    -38.19455325874));
#79 = CARTESIAN_POINT('',(-40.92273563436,491.07282761237,38.19455325874
    ));
#80 = FACE_BOUND('',#81,.T.);
#81 = EDGE_LOOP('',(#82,#91,#98,#105));
#82 = ORIENTED_EDGE('',*,*,#83,.F.);
#83 = EDGE_CURVE('',#84,#86,#88,.T.);
#84 = VERTEX_POINT('',#85);
#85 = CARTESIAN_POINT('',(-36.83046207092,491.07282761237,
    -36.83046207092));
#86 = VERTEX_POINT('',#87);
#87 = CARTESIAN_POINT('',(-36.83046207092,491.07282761237,
    36.830462070928));
#88 = B_SPLINE_CURVE_WITH_KNOTS('',1,(#89,#90),.UNSPECIFIED.,.F.,.F.,(2,
    2),(-54.,0.),.PIECEWISE_BEZIER_KNOTS.);
#89 = CARTESIAN_POINT('',(-36.83046207092,491.07282761237,
    -36.83046207092));
#90 = CARTESIAN_POINT('',(-36.83046207092,491.07282761237,
    36.830462070928));
#91 = ORIENTED_EDGE('',*,*,#92,.F.);
#92 = EDGE_CURVE('',#93,#84,#95,.T.);
#93 = VERTEX_POINT('',#94);
#94 = CARTESIAN_POINT('',(36.830462070928,491.07282761237,
    -36.83046207092));
#95 = B_SPLINE_CURVE_WITH_KNOTS('',1,(#96,#97),.UNSPECIFIED.,.F.,.F.,(2,
    2),(-54.,-0.),.PIECEWISE_BEZIER_KNOTS.);
#96 = CARTESIAN_POINT('',(36.830462070928,491.07282761237,
    -36.83046207092));
#97 = CARTESIAN_POINT('',(-36.83046207092,491.07282761237,
    -36.83046207092));
#98 = ORIENTED_EDGE('',*,*,#99,.F.);
#99 = EDGE_CURVE('',#100,#93,#102,.T.);
#100 = VERTEX_POINT('',#101);
#101 = CARTESIAN_POINT('',(36.830462070928,491.07282761237,
    36.830462070928));
#102 = B_SPLINE_CURVE_WITH_KNOTS('',1,(#103,#104),.UNSPECIFIED.,.F.,.F.,
  (2,2),(0.,54.),.PIECEWISE_BEZIER_KNOTS.);
#103 = CARTESIAN_POINT('',(36.830462070928,491.07282761237,
    36.830462070928));
#104 = CARTESIAN_POINT('',(36.830462070928,491.07282761237,
    -36.83046207092));
#105 = ORIENTED_EDGE('',*,*,#106,.F.);
#106 = EDGE_CURVE('',#86,#100,#107,.T.);
#107 = B_SPLINE_CURVE_WITH_KNOTS('',1,(#108,#109),.UNSPECIFIED.,.F.,.F.,
  (2,2),(0.,54.),.PIECEWISE_BEZIER_KNOTS.);
#108 = CARTESIAN_POINT('',(-36.83046207092,491.07282761237,
    36.830462070928));
#109 = CARTESIAN_POINT('',(36.830462070928,491.07282761237,
    36.830462070928));
#110 = B_SPLINE_SURFACE_WITH_KNOTS('',1,1,(
    (#111,#112)
    ,(#113,#114
    )),.UNSPECIFIED.,.F.,.F.,.F.,(2,2),(2,2),(-2.,58.),(-2.,58.),
  .PIECEWISE_BEZIER_KNOTS.);
#111 = CARTESIAN_POINT('',(-40.92273563436,491.07282761237,
    40.922735634364));
#112 = CARTESIAN_POINT('',(40.922735634364,491.07282761237,
    40.922735634364));
#113 = CARTESIAN_POINT('',(-40.92273563436,491.07282761237,
    -40.92273563436));
#114 = CARTESIAN_POINT('',(40.922735634364,491.07282761237,
    -40.92273563436));
#115 = ADVANCED_FACE('',(#116,#178),#208,.T.);
#116 = FACE_BOUND('',#117,.T.);
#117 = EDGE_LOOP('',(#118,#128,#135,#143,#150,#158,#165,#173));
#118 = ORIENTED_EDGE('',*,*,#119,.F.);
#119 = EDGE_CURVE('',#120,#122,#124,.T.);
#120 = VERTEX_POINT('',#121);
#121 = CARTESIAN_POINT('',(-40.92273563436,0.,38.19455325874));
#122 = VERTEX_POINT('',#123);
#123 = CARTESIAN_POINT('',(-38.19455325874,0.,40.922735634364));
#124 = ( BOUNDED_CURVE() B_SPLINE_CURVE(2,(#125,#126,#127),
.UNSPECIFIED.,.F.,.F.) B_SPLINE_CURVE_WITH_KNOTS((3,3),(1.570796326795,
3.14159265359),.PIECEWISE_BEZIER_KNOTS.) CURVE() 
GEOMETRIC_REPRESENTATION_ITEM() RATIONAL_B_SPLINE_CURVE((1.,
0.707106781187,1.)) REPRESENTATION_ITEM('') );
#125 = CARTESIAN_POINT('',(-40.92273563436,0.,38.19455325874));
#126 = CARTESIAN_POINT('',(-40.92273563436,0.,40.922735634364));
#127 = CARTESIAN_POINT('',(-38.19455325874,0.,40.922735634364));
#128 = ORIENTED_EDGE('',*,*,#129,.F.);
#129 = EDGE_CURVE('',#130,#120,#132,.T.);
#130 = VERTEX_POINT('',#131);
#131 = CARTESIAN_POINT('',(-40.92273563436,0.,-38.19455325874));
#132 = B_SPLINE_CURVE_WITH_KNOTS('',1,(#133,#134),.UNSPECIFIED.,.F.,.F.,
  (2,2),(-56.,0.),.PIECEWISE_BEZIER_KNOTS.);
#133 = CARTESIAN_POINT('',(-40.92273563436,0.,-38.19455325874));
#134 = CARTESIAN_POINT('',(-40.92273563436,0.,38.19455325874));
#135 = ORIENTED_EDGE('',*,*,#136,.F.);
#136 = EDGE_CURVE('',#137,#130,#139,.T.);
#137 = VERTEX_POINT('',#138);
#138 = CARTESIAN_POINT('',(-38.19455325874,0.,-40.92273563436));
#139 = ( BOUNDED_CURVE() B_SPLINE_CURVE(2,(#140,#141,#142),
.UNSPECIFIED.,.F.,.F.) B_SPLINE_CURVE_WITH_KNOTS((3,3),(3.14159265359,
4.712388980385),.PIECEWISE_BEZIER_KNOTS.) CURVE() 
GEOMETRIC_REPRESENTATION_ITEM() RATIONAL_B_SPLINE_CURVE((1.,
0.707106781187,1.)) REPRESENTATION_ITEM('') );
#140 = CARTESIAN_POINT('',(-38.19455325874,0.,-40.92273563436));
#141 = CARTESIAN_POINT('',(-40.92273563436,0.,-40.92273563436));
#142 = CARTESIAN_POINT('',(-40.92273563436,0.,-38.19455325874));
#143 = ORIENTED_EDGE('',*,*,#144,.F.);
#144 = EDGE_CURVE('',#145,#137,#147,.T.);
#145 = VERTEX_POINT('',#146);
#146 = CARTESIAN_POINT('',(38.19455325874,0.,-40.92273563436));
#147 = B_SPLINE_CURVE_WITH_KNOTS('',1,(#148,#149),.UNSPECIFIED.,.F.,.F.,
  (2,2),(-56.,-0.),.PIECEWISE_BEZIER_KNOTS.);
#148 = CARTESIAN_POINT('',(38.19455325874,0.,-40.92273563436));
#149 = CARTESIAN_POINT('',(-38.19455325874,0.,-40.92273563436));
#150 = ORIENTED_EDGE('',*,*,#151,.F.);
#151 = EDGE_CURVE('',#152,#145,#154,.T.);
#152 = VERTEX_POINT('',#153);
#153 = CARTESIAN_POINT('',(40.922735634364,0.,-38.19455325874));
#154 = ( BOUNDED_CURVE() B_SPLINE_CURVE(2,(#155,#156,#157),
.UNSPECIFIED.,.F.,.F.) B_SPLINE_CURVE_WITH_KNOTS((3,3),(4.712388980385,
6.28318530718),.PIECEWISE_BEZIER_KNOTS.) CURVE() 
GEOMETRIC_REPRESENTATION_ITEM() RATIONAL_B_SPLINE_CURVE((1.,
0.707106781187,1.)) REPRESENTATION_ITEM('') );
#155 = CARTESIAN_POINT('',(40.922735634364,0.,-38.19455325874));
#156 = CARTESIAN_POINT('',(40.922735634364,0.,-40.92273563436));
#157 = CARTESIAN_POINT('',(38.19455325874,0.,-40.92273563436));
#158 = ORIENTED_EDGE('',*,*,#159,.F.);
#159 = EDGE_CURVE('',#160,#152,#162,.T.);
#160 = VERTEX_POINT('',#161);
#161 = CARTESIAN_POINT('',(40.922735634364,0.,38.19455325874));
#162 = B_SPLINE_CURVE_WITH_KNOTS('',1,(#163,#164),.UNSPECIFIED.,.F.,.F.,
  (2,2),(0.,56.),.PIECEWISE_BEZIER_KNOTS.);
#163 = CARTESIAN_POINT('',(40.922735634364,0.,38.19455325874));
#164 = CARTESIAN_POINT('',(40.922735634364,0.,-38.19455325874));
#165 = ORIENTED_EDGE('',*,*,#166,.F.);
#166 = EDGE_CURVE('',#167,#160,#169,.T.);
#167 = VERTEX_POINT('',#168);
#168 = CARTESIAN_POINT('',(38.19455325874,0.,40.922735634364));
#169 = ( BOUNDED_CURVE() B_SPLINE_CURVE(2,(#170,#171,#172),
.UNSPECIFIED.,.F.,.F.) B_SPLINE_CURVE_WITH_KNOTS((3,3),(0.,
1.570796326795),.PIECEWISE_BEZIER_KNOTS.) CURVE() 
GEOMETRIC_REPRESENTATION_ITEM() RATIONAL_B_SPLINE_CURVE((1.,
0.707106781187,1.)) REPRESENTATION_ITEM('') );
#170 = CARTESIAN_POINT('',(38.19455325874,0.,40.922735634364));
#171 = CARTESIAN_POINT('',(40.922735634364,0.,40.922735634364));
#172 = CARTESIAN_POINT('',(40.922735634364,0.,38.19455325874));
#173 = ORIENTED_EDGE('',*,*,#174,.F.);
#174 = EDGE_CURVE('',#122,#167,#175,.T.);
#175 = B_SPLINE_CURVE_WITH_KNOTS('',1,(#176,#177),.UNSPECIFIED.,.F.,.F.,
  (2,2),(0.,56.),.PIECEWISE_BEZIER_KNOTS.);
#176 = CARTESIAN_POINT('',(-38.19455325874,0.,40.922735634364));
#177 = CARTESIAN_POINT('',(38.19455325874,0.,40.922735634364));
#178 = FACE_BOUND('',#179,.T.);
#179 = EDGE_LOOP('',(#180,#189,#196,#203));
#180 = ORIENTED_EDGE('',*,*,#181,.T.);
#181 = EDGE_CURVE('',#182,#184,#186,.T.);
#182 = VERTEX_POINT('',#183);
#183 = CARTESIAN_POINT('',(36.830462070928,0.,-36.83046207092));
#184 = VERTEX_POINT('',#185);
#185 = CARTESIAN_POINT('',(-36.83046207092,0.,-36.83046207092));
#186 = B_SPLINE_CURVE_WITH_KNOTS('',1,(#187,#188),.UNSPECIFIED.,.F.,.F.,
  (2,2),(-54.,-0.),.PIECEWISE_BEZIER_KNOTS.);
#187 = CARTESIAN_POINT('',(36.830462070928,0.,-36.83046207092));
#188 = CARTESIAN_POINT('',(-36.83046207092,0.,-36.83046207092));
#189 = ORIENTED_EDGE('',*,*,#190,.T.);
#190 = EDGE_CURVE('',#184,#191,#193,.T.);
#191 = VERTEX_POINT('',#192);
#192 = CARTESIAN_POINT('',(-36.83046207092,0.,36.830462070928));
#193 = B_SPLINE_CURVE_WITH_KNOTS('',1,(#194,#195),.UNSPECIFIED.,.F.,.F.,
  (2,2),(-54.,0.),.PIECEWISE_BEZIER_KNOTS.);
#194 = CARTESIAN_POINT('',(-36.83046207092,0.,-36.83046207092));
#195 = CARTESIAN_POINT('',(-36.83046207092,0.,36.830462070928));
#196 = ORIENTED_EDGE('',*,*,#197,.T.);
#197 = EDGE_CURVE('',#191,#198,#200,.T.);
#198 = VERTEX_POINT('',#199);
#199 = CARTESIAN_POINT('',(36.830462070928,0.,36.830462070928));
#200 = B_SPLINE_CURVE_WITH_KNOTS('',1,(#201,#202),.UNSPECIFIED.,.F.,.F.,
  (2,2),(0.,54.),.PIECEWISE_BEZIER_KNOTS.);
#201 = CARTESIAN_POINT('',(-36.83046207092,0.,36.830462070928));
#202 = CARTESIAN_POINT('',(36.830462070928,0.,36.830462070928));
#203 = ORIENTED_EDGE('',*,*,#204,.T.);
#204 = EDGE_CURVE('',#198,#182,#205,.T.);
#205 = B_SPLINE_CURVE_WITH_KNOTS('',1,(#206,#207),.UNSPECIFIED.,.F.,.F.,
  (2,2),(0.,54.),.PIECEWISE_BEZIER_KNOTS.);
#206 = CARTESIAN_POINT('',(36.830462070928,0.,36.830462070928));
#207 = CARTESIAN_POINT('',(36.830462070928,0.,-36.83046207092));
#208 = B_SPLINE_SURFACE_WITH_KNOTS('',1,1,(
    (#209,#210)
    ,(#211,#212
    )),.UNSPECIFIED.,.F.,.F.,.F.,(2,2),(2,2),(-2.,58.),(-2.,58.),
  .PIECEWISE_BEZIER_KNOTS.);
#209 = CARTESIAN_POINT('',(-40.92273563436,0.,40.922735634364));
#210 = CARTESIAN_POINT('',(40.922735634364,0.,40.922735634364));
#211 = CARTESIAN_POINT('',(-40.92273563436,0.,-40.92273563436));
#212 = CARTESIAN_POINT('',(40.922735634364,0.,-40.92273563436));
#213 = ADVANCED_FACE('',(#214),#228,.T.);
#214 = FACE_BOUND('',#215,.T.);
#215 = EDGE_LOOP('',(#216,#217,#222,#223));
#216 = ORIENTED_EDGE('',*,*,#119,.T.);
#217 = ORIENTED_EDGE('',*,*,#218,.F.);
#218 = EDGE_CURVE('',#24,#122,#219,.T.);
#219 = B_SPLINE_CURVE_WITH_KNOTS('',1,(#220,#221),.UNSPECIFIED.,.F.,.F.,
  (2,2),(-0.,360.),.PIECEWISE_BEZIER_KNOTS.);
#220 = CARTESIAN_POINT('',(-38.19455325874,491.07282761237,
    40.922735634364));
#221 = CARTESIAN_POINT('',(-38.19455325874,0.,40.922735634364));
#222 = ORIENTED_EDGE('',*,*,#21,.F.);
#223 = ORIENTED_EDGE('',*,*,#224,.T.);
#224 = EDGE_CURVE('',#22,#120,#225,.T.);
#225 = B_SPLINE_CURVE_WITH_KNOTS('',1,(#226,#227),.UNSPECIFIED.,.F.,.F.,
  (2,2),(-0.,360.),.PIECEWISE_BEZIER_KNOTS.);
#226 = CARTESIAN_POINT('',(-40.92273563436,491.07282761237,
    38.19455325874));
#227 = CARTESIAN_POINT('',(-40.92273563436,0.,38.19455325874));
#228 = ( BOUNDED_SURFACE() B_SPLINE_SURFACE(2,1,(
    (#229,#230)
    ,(#231,#232)
,(#233,#234
    )),.UNSPECIFIED.,.F.,.F.,.F.) B_SPLINE_SURFACE_WITH_KNOTS((3,3),(2,2
    ),(3.14159265359,4.712388980385),(0.,360.),
.PIECEWISE_BEZIER_KNOTS.) GEOMETRIC_REPRESENTATION_ITEM() 
RATIONAL_B_SPLINE_SURFACE((
    (1.,1.)
    ,(0.707106781187,0.707106781187)
,(1.,1.))) REPRESENTATION_ITEM('') SURFACE() );
#229 = CARTESIAN_POINT('',(-38.19455325874,491.07282761237,
    40.922735634364));
#230 = CARTESIAN_POINT('',(-38.19455325874,0.,40.922735634364));
#231 = CARTESIAN_POINT('',(-40.92273563436,491.07282761237,
    40.922735634364));
#232 = CARTESIAN_POINT('',(-40.92273563436,0.,40.922735634364));
#233 = CARTESIAN_POINT('',(-40.92273563436,491.07282761237,
    38.19455325874));
#234 = CARTESIAN_POINT('',(-40.92273563436,0.,38.19455325874));
#235 = ADVANCED_FACE('',(#236),#246,.F.);
#236 = FACE_BOUND('',#237,.T.);
#237 = EDGE_LOOP('',(#238,#239,#244,#245));
#238 = ORIENTED_EDGE('',*,*,#174,.T.);
#239 = ORIENTED_EDGE('',*,*,#240,.F.);
#240 = EDGE_CURVE('',#32,#167,#241,.T.);
#241 = B_SPLINE_CURVE_WITH_KNOTS('',1,(#242,#243),.UNSPECIFIED.,.F.,.F.,
  (2,2),(-0.,360.),.PIECEWISE_BEZIER_KNOTS.);
#242 = CARTESIAN_POINT('',(38.19455325874,491.07282761237,
    40.922735634364));
#243 = CARTESIAN_POINT('',(38.19455325874,0.,40.922735634364));
#244 = ORIENTED_EDGE('',*,*,#31,.F.);
#245 = ORIENTED_EDGE('',*,*,#218,.T.);
#246 = B_SPLINE_SURFACE_WITH_KNOTS('',1,1,(
    (#247,#248)
    ,(#249,#250
    )),.UNSPECIFIED.,.F.,.F.,.F.,(2,2),(2,2),(-56.,0.),(-360.,0.),
  .PIECEWISE_BEZIER_KNOTS.);
#247 = CARTESIAN_POINT('',(38.19455325874,0.,40.922735634364));
#248 = CARTESIAN_POINT('',(38.19455325874,491.07282761237,
    40.922735634364));
#249 = CARTESIAN_POINT('',(-38.19455325874,0.,40.922735634364));
#250 = CARTESIAN_POINT('',(-38.19455325874,491.07282761237,
    40.922735634364));
#251 = ADVANCED_FACE('',(#252),#262,.T.);
#252 = FACE_BOUND('',#253,.T.);
#253 = EDGE_LOOP('',(#254,#255,#260,#261));
#254 = ORIENTED_EDGE('',*,*,#166,.T.);
#255 = ORIENTED_EDGE('',*,*,#256,.F.);
#256 = EDGE_CURVE('',#39,#160,#257,.T.);
#257 = B_SPLINE_CURVE_WITH_KNOTS('',1,(#258,#259),.UNSPECIFIED.,.F.,.F.,
  (2,2),(-0.,360.),.PIECEWISE_BEZIER_KNOTS.);
#258 = CARTESIAN_POINT('',(40.922735634364,491.07282761237,
    38.19455325874));
#259 = CARTESIAN_POINT('',(40.922735634364,0.,38.19455325874));
#260 = ORIENTED_EDGE('',*,*,#38,.F.);
#261 = ORIENTED_EDGE('',*,*,#240,.T.);
#262 = ( BOUNDED_SURFACE() B_SPLINE_SURFACE(2,1,(
    (#263,#264)
    ,(#265,#266)
,(#267,#268
    )),.UNSPECIFIED.,.F.,.F.,.F.) B_SPLINE_SURFACE_WITH_KNOTS((3,3),(2,2
    ),(1.570796326795,3.14159265359),(0.,360.),
.PIECEWISE_BEZIER_KNOTS.) GEOMETRIC_REPRESENTATION_ITEM() 
RATIONAL_B_SPLINE_SURFACE((
    (1.,1.)
    ,(0.707106781187,0.707106781187)
,(1.,1.))) REPRESENTATION_ITEM('') SURFACE() );
#263 = CARTESIAN_POINT('',(40.922735634364,491.07282761237,
    38.19455325874));
#264 = CARTESIAN_POINT('',(40.922735634364,0.,38.19455325874));
#265 = CARTESIAN_POINT('',(40.922735634364,491.07282761237,
    40.922735634364));
#266 = CARTESIAN_POINT('',(40.922735634364,0.,40.922735634364));
#267 = CARTESIAN_POINT('',(38.19455325874,491.07282761237,
    40.922735634364));
#268 = CARTESIAN_POINT('',(38.19455325874,0.,40.922735634364));
#269 = ADVANCED_FACE('',(#270),#280,.F.);
#270 = FACE_BOUND('',#271,.T.);
#271 = EDGE_LOOP('',(#272,#273,#278,#279));
#272 = ORIENTED_EDGE('',*,*,#159,.T.);
#273 = ORIENTED_EDGE('',*,*,#274,.F.);
#274 = EDGE_CURVE('',#47,#152,#275,.T.);
#275 = B_SPLINE_CURVE_WITH_KNOTS('',1,(#276,#277),.UNSPECIFIED.,.F.,.F.,
  (2,2),(-0.,360.),.PIECEWISE_BEZIER_KNOTS.);
#276 = CARTESIAN_POINT('',(40.922735634364,491.07282761237,
    -38.19455325874));
#277 = CARTESIAN_POINT('',(40.922735634364,0.,-38.19455325874));
#278 = ORIENTED_EDGE('',*,*,#46,.F.);
#279 = ORIENTED_EDGE('',*,*,#256,.T.);
#280 = B_SPLINE_SURFACE_WITH_KNOTS('',1,1,(
    (#281,#282)
    ,(#283,#284
    )),.UNSPECIFIED.,.F.,.F.,.F.,(2,2),(2,2),(-56.,0.),(-360.,0.),
  .PIECEWISE_BEZIER_KNOTS.);
#281 = CARTESIAN_POINT('',(40.922735634364,0.,-38.19455325874));
#282 = CARTESIAN_POINT('',(40.922735634364,491.07282761237,
    -38.19455325874));
#283 = CARTESIAN_POINT('',(40.922735634364,0.,38.19455325874));
#284 = CARTESIAN_POINT('',(40.922735634364,491.07282761237,
    38.19455325874));
#285 = ADVANCED_FACE('',(#286),#296,.T.);
#286 = FACE_BOUND('',#287,.T.);
#287 = EDGE_LOOP('',(#288,#289,#294,#295));
#288 = ORIENTED_EDGE('',*,*,#151,.T.);
#289 = ORIENTED_EDGE('',*,*,#290,.F.);
#290 = EDGE_CURVE('',#54,#145,#291,.T.);
#291 = B_SPLINE_CURVE_WITH_KNOTS('',1,(#292,#293),.UNSPECIFIED.,.F.,.F.,
  (2,2),(-0.,360.),.PIECEWISE_BEZIER_KNOTS.);
#292 = CARTESIAN_POINT('',(38.19455325874,491.07282761237,
    -40.92273563436));
#293 = CARTESIAN_POINT('',(38.19455325874,0.,-40.92273563436));
#294 = ORIENTED_EDGE('',*,*,#53,.F.);
#295 = ORIENTED_EDGE('',*,*,#274,.T.);
#296 = ( BOUNDED_SURFACE() B_SPLINE_SURFACE(2,1,(
    (#297,#298)
    ,(#299,#300)
,(#301,#302
    )),.UNSPECIFIED.,.F.,.F.,.F.) B_SPLINE_SURFACE_WITH_KNOTS((3,3),(2,2
    ),(0.,1.570796326795),(0.,360.),.PIECEWISE_BEZIER_KNOTS.) 
GEOMETRIC_REPRESENTATION_ITEM() RATIONAL_B_SPLINE_SURFACE((
    (1.,1.)
    ,(0.707106781187,0.707106781187)
,(1.,1.))) REPRESENTATION_ITEM('') SURFACE() );
#297 = CARTESIAN_POINT('',(38.19455325874,491.07282761237,
    -40.92273563436));
#298 = CARTESIAN_POINT('',(38.19455325874,0.,-40.92273563436));
#299 = CARTESIAN_POINT('',(40.922735634364,491.07282761237,
    -40.92273563436));
#300 = CARTESIAN_POINT('',(40.922735634364,0.,-40.92273563436));
#301 = CARTESIAN_POINT('',(40.922735634364,491.07282761237,
    -38.19455325874));
#302 = CARTESIAN_POINT('',(40.922735634364,0.,-38.19455325874));
#303 = ADVANCED_FACE('',(#304),#314,.F.);
#304 = FACE_BOUND('',#305,.T.);
#305 = EDGE_LOOP('',(#306,#307,#312,#313));
#306 = ORIENTED_EDGE('',*,*,#144,.T.);
#307 = ORIENTED_EDGE('',*,*,#308,.F.);
#308 = EDGE_CURVE('',#62,#137,#309,.T.);
#309 = B_SPLINE_CURVE_WITH_KNOTS('',1,(#310,#311),.UNSPECIFIED.,.F.,.F.,
  (2,2),(-0.,360.),.PIECEWISE_BEZIER_KNOTS.);
#310 = CARTESIAN_POINT('',(-38.19455325874,491.07282761237,
    -40.92273563436));
#311 = CARTESIAN_POINT('',(-38.19455325874,0.,-40.92273563436));
#312 = ORIENTED_EDGE('',*,*,#61,.F.);
#313 = ORIENTED_EDGE('',*,*,#290,.T.);
#314 = B_SPLINE_SURFACE_WITH_KNOTS('',1,1,(
    (#315,#316)
    ,(#317,#318
    )),.UNSPECIFIED.,.F.,.F.,.F.,(2,2),(2,2),(0.,56.),(-360.,0.),
  .PIECEWISE_BEZIER_KNOTS.);
#315 = CARTESIAN_POINT('',(-38.19455325874,0.,-40.92273563436));
#316 = CARTESIAN_POINT('',(-38.19455325874,491.07282761237,
    -40.92273563436));
#317 = CARTESIAN_POINT('',(38.19455325874,0.,-40.92273563436));
#318 = CARTESIAN_POINT('',(38.19455325874,491.07282761237,
    -40.92273563436));
#319 = ADVANCED_FACE('',(#320),#330,.T.);
#320 = FACE_BOUND('',#321,.T.);
#321 = EDGE_LOOP('',(#322,#323,#328,#329));
#322 = ORIENTED_EDGE('',*,*,#136,.T.);
#323 = ORIENTED_EDGE('',*,*,#324,.F.);
#324 = EDGE_CURVE('',#69,#130,#325,.T.);
#325 = B_SPLINE_CURVE_WITH_KNOTS('',1,(#326,#327),.UNSPECIFIED.,.F.,.F.,
  (2,2),(-0.,360.),.PIECEWISE_BEZIER_KNOTS.);
#326 = CARTESIAN_POINT('',(-40.92273563436,491.07282761237,
    -38.19455325874));
#327 = CARTESIAN_POINT('',(-40.92273563436,0.,-38.19455325874));
#328 = ORIENTED_EDGE('',*,*,#68,.F.);
#329 = ORIENTED_EDGE('',*,*,#308,.T.);
#330 = ( BOUNDED_SURFACE() B_SPLINE_SURFACE(2,1,(
    (#331,#332)
    ,(#333,#334)
,(#335,#336
    )),.UNSPECIFIED.,.F.,.F.,.F.) B_SPLINE_SURFACE_WITH_KNOTS((3,3),(2,2
    ),(4.712388980385,6.28318530718),(0.,360.),
.PIECEWISE_BEZIER_KNOTS.) GEOMETRIC_REPRESENTATION_ITEM() 
RATIONAL_B_SPLINE_SURFACE((
    (1.,1.)
    ,(0.707106781187,0.707106781187)
,(1.,1.))) REPRESENTATION_ITEM('') SURFACE() );
#331 = CARTESIAN_POINT('',(-40.92273563436,491.07282761237,
    -38.19455325874));
#332 = CARTESIAN_POINT('',(-40.92273563436,0.,-38.19455325874));
#333 = CARTESIAN_POINT('',(-40.92273563436,491.07282761237,
    -40.92273563436));
#334 = CARTESIAN_POINT('',(-40.92273563436,0.,-40.92273563436));
#335 = CARTESIAN_POINT('',(-38.19455325874,491.07282761237,
    -40.92273563436));
#336 = CARTESIAN_POINT('',(-38.19455325874,0.,-40.92273563436));
#337 = ADVANCED_FACE('',(#338),#344,.F.);
#338 = FACE_BOUND('',#339,.T.);
#339 = EDGE_LOOP('',(#340,#341,#342,#343));
#340 = ORIENTED_EDGE('',*,*,#129,.T.);
#341 = ORIENTED_EDGE('',*,*,#224,.F.);
#342 = ORIENTED_EDGE('',*,*,#76,.F.);
#343 = ORIENTED_EDGE('',*,*,#324,.T.);
#344 = B_SPLINE_SURFACE_WITH_KNOTS('',1,1,(
    (#345,#346)
    ,(#347,#348
    )),.UNSPECIFIED.,.F.,.F.,.F.,(2,2),(2,2),(0.,56.),(-360.,0.),
  .PIECEWISE_BEZIER_KNOTS.);
#345 = CARTESIAN_POINT('',(-40.92273563436,0.,38.19455325874));
#346 = CARTESIAN_POINT('',(-40.92273563436,491.07282761237,
    38.19455325874));
#347 = CARTESIAN_POINT('',(-40.92273563436,0.,-38.19455325874));
#348 = CARTESIAN_POINT('',(-40.92273563436,491.07282761237,
    -38.19455325874));
#349 = ADVANCED_FACE('',(#350),#364,.T.);
#350 = FACE_BOUND('',#351,.T.);
#351 = EDGE_LOOP('',(#352,#353,#358,#359));
#352 = ORIENTED_EDGE('',*,*,#190,.F.);
#353 = ORIENTED_EDGE('',*,*,#354,.F.);
#354 = EDGE_CURVE('',#84,#184,#355,.T.);
#355 = B_SPLINE_CURVE_WITH_KNOTS('',1,(#356,#357),.UNSPECIFIED.,.F.,.F.,
  (2,2),(-0.,360.),.PIECEWISE_BEZIER_KNOTS.);
#356 = CARTESIAN_POINT('',(-36.83046207092,491.07282761237,
    -36.83046207092));
#357 = CARTESIAN_POINT('',(-36.83046207092,0.,-36.83046207092));
#358 = ORIENTED_EDGE('',*,*,#83,.T.);
#359 = ORIENTED_EDGE('',*,*,#360,.T.);
#360 = EDGE_CURVE('',#86,#191,#361,.T.);
#361 = B_SPLINE_CURVE_WITH_KNOTS('',1,(#362,#363),.UNSPECIFIED.,.F.,.F.,
  (2,2),(-0.,360.),.PIECEWISE_BEZIER_KNOTS.);
#362 = CARTESIAN_POINT('',(-36.83046207092,491.07282761237,
    36.830462070928));
#363 = CARTESIAN_POINT('',(-36.83046207092,0.,36.830462070928));
#364 = B_SPLINE_SURFACE_WITH_KNOTS('',1,1,(
    (#365,#366)
    ,(#367,#368
    )),.UNSPECIFIED.,.F.,.F.,.F.,(2,2),(2,2),(0.,54.),(-360.,0.),
  .PIECEWISE_BEZIER_KNOTS.);
#365 = CARTESIAN_POINT('',(-36.83046207092,0.,36.830462070928));
#366 = CARTESIAN_POINT('',(-36.83046207092,491.07282761237,
    36.830462070928));
#367 = CARTESIAN_POINT('',(-36.83046207092,0.,-36.83046207092));
#368 = CARTESIAN_POINT('',(-36.83046207092,491.07282761237,
    -36.83046207092));
#369 = ADVANCED_FACE('',(#370),#380,.T.);
#370 = FACE_BOUND('',#371,.T.);
#371 = EDGE_LOOP('',(#372,#373,#374,#375));
#372 = ORIENTED_EDGE('',*,*,#197,.F.);
#373 = ORIENTED_EDGE('',*,*,#360,.F.);
#374 = ORIENTED_EDGE('',*,*,#106,.T.);
#375 = ORIENTED_EDGE('',*,*,#376,.T.);
#376 = EDGE_CURVE('',#100,#198,#377,.T.);
#377 = B_SPLINE_CURVE_WITH_KNOTS('',1,(#378,#379),.UNSPECIFIED.,.F.,.F.,
  (2,2),(-0.,360.),.PIECEWISE_BEZIER_KNOTS.);
#378 = CARTESIAN_POINT('',(36.830462070928,491.07282761237,
    36.830462070928));
#379 = CARTESIAN_POINT('',(36.830462070928,0.,36.830462070928));
#380 = B_SPLINE_SURFACE_WITH_KNOTS('',1,1,(
    (#381,#382)
    ,(#383,#384
    )),.UNSPECIFIED.,.F.,.F.,.F.,(2,2),(2,2),(-54.,0.),(-360.,0.),
  .PIECEWISE_BEZIER_KNOTS.);
#381 = CARTESIAN_POINT('',(36.830462070928,0.,36.830462070928));
#382 = CARTESIAN_POINT('',(36.830462070928,491.07282761237,
    36.830462070928));
#383 = CARTESIAN_POINT('',(-36.83046207092,0.,36.830462070928));
#384 = CARTESIAN_POINT('',(-36.83046207092,491.07282761237,
    36.830462070928));
#385 = ADVANCED_FACE('',(#386),#396,.T.);
#386 = FACE_BOUND('',#387,.T.);
#387 = EDGE_LOOP('',(#388,#389,#390,#391));
#388 = ORIENTED_EDGE('',*,*,#204,.F.);
#389 = ORIENTED_EDGE('',*,*,#376,.F.);
#390 = ORIENTED_EDGE('',*,*,#99,.T.);
#391 = ORIENTED_EDGE('',*,*,#392,.T.);
#392 = EDGE_CURVE('',#93,#182,#393,.T.);
#393 = B_SPLINE_CURVE_WITH_KNOTS('',1,(#394,#395),.UNSPECIFIED.,.F.,.F.,
  (2,2),(-0.,360.),.PIECEWISE_BEZIER_KNOTS.);
#394 = CARTESIAN_POINT('',(36.830462070928,491.07282761237,
    -36.83046207092));
#395 = CARTESIAN_POINT('',(36.830462070928,0.,-36.83046207092));
#396 = B_SPLINE_SURFACE_WITH_KNOTS('',1,1,(
    (#397,#398)
    ,(#399,#400
    )),.UNSPECIFIED.,.F.,.F.,.F.,(2,2),(2,2),(-54.,0.),(-360.,0.),
  .PIECEWISE_BEZIER_KNOTS.);
#397 = CARTESIAN_POINT('',(36.830462070928,0.,-36.83046207092));
#398 = CARTESIAN_POINT('',(36.830462070928,491.07282761237,
    -36.83046207092));
#399 = CARTESIAN_POINT('',(36.830462070928,0.,36.830462070928));
#400 = CARTESIAN_POINT('',(36.830462070928,491.07282761237,
    36.830462070928));
#401 = ADVANCED_FACE('',(#402),#408,.T.);
#402 = FACE_BOUND('',#403,.T.);
#403 = EDGE_LOOP('',(#404,#405,#406,#407));
#404 = ORIENTED_EDGE('',*,*,#181,.F.);
#405 = ORIENTED_EDGE('',*,*,#392,.F.);
#406 = ORIENTED_EDGE('',*,*,#92,.T.);
#407 = ORIENTED_EDGE('',*,*,#354,.T.);
#408 = B_SPLINE_SURFACE_WITH_KNOTS('',1,1,(
    (#409,#410)
    ,(#411,#412
    )),.UNSPECIFIED.,.F.,.F.,.F.,(2,2),(2,2),(0.,54.),(-360.,0.),
  .PIECEWISE_BEZIER_KNOTS.);
#409 = CARTESIAN_POINT('',(-36.83046207092,0.,-36.83046207092));
#410 = CARTESIAN_POINT('',(-36.83046207092,491.07282761237,
    -36.83046207092));
#411 = CARTESIAN_POINT('',(36.830462070928,0.,-36.83046207092));
#412 = CARTESIAN_POINT('',(36.830462070928,491.07282761237,
    -36.83046207092));
#413 = ( GEOMETRIC_REPRESENTATION_CONTEXT(3) 
GLOBAL_UNCERTAINTY_ASSIGNED_CONTEXT((#417)) GLOBAL_UNIT_ASSIGNED_CONTEXT
((#414,#415,#416)) REPRESENTATION_CONTEXT('Context #1',
  '3D Context with UNIT and UNCERTAINTY') );
#414 = ( LENGTH_UNIT() NAMED_UNIT(*) SI_UNIT(.MILLI.,.METRE.) );
#415 = ( NAMED_UNIT(*) PLANE_ANGLE_UNIT() SI_UNIT($,.RADIAN.) );
#416 = ( NAMED_UNIT(*) SI_UNIT($,.STERADIAN.) SOLID_ANGLE_UNIT() );
#417 = UNCERTAINTY_MEASURE_WITH_UNIT(LENGTH_MEASURE(2.E-07),#414,
  'distance_accuracy_value','confusion accuracy');
#418 = PRODUCT_RELATED_PRODUCT_CATEGORY('part',$,(#7));
ENDSEC;
END-ISO-10303-21;
