ISO-10303-21;
HEADER;
FILE_DESCRIPTION(('FreeCAD Model'),'2;1');
FILE_NAME('Open CASCADE Shape Model','2025-05-09T15:10:55',('FreeCAD'),(
    'FreeCAD'),'Open CASCADE STEP processor 7.6','FreeCAD','Unknown');
FILE_SCHEMA(('AUTOMOTIVE_DESIGN { 1 0 10303 214 1 1 1 1 }'));
ENDSEC;
DATA;
#1 = APPLICATION_PROTOCOL_DEFINITION('international standard',
  'automotive_design',2000,#2);
#2 = APPLICATION_CONTEXT(
  'core data for automotive mechanical design processes');
#3 = SHAPE_DEFINITION_REPRESENTATION(#4,#10);
#4 = PRODUCT_DEFINITION_SHAPE('','',#5);
#5 = PRODUCT_DEFINITION('design','',#6,#9);
#6 = PRODUCT_DEFINITION_FORMATION('','',#7);
#7 = PRODUCT('Open CASCADE STEP translator 7.6 1',
  'Open CASCADE STEP translator 7.6 1','',(#8));
#8 = PRODUCT_CONTEXT('',#2,'mechanical');
#9 = PRODUCT_DEFINITION_CONTEXT('part definition',#2,'design');
#10 = ADVANCED_BREP_SHAPE_REPRESENTATION('',(#11,#15),#329);
#11 = AXIS2_PLACEMENT_3D('',#12,#13,#14);
#12 = CARTESIAN_POINT('',(0.,0.,0.));
#13 = DIRECTION('',(0.,0.,1.));
#14 = DIRECTION('',(1.,0.,-0.));
#15 = MANIFOLD_SOLID_BREP('',#16);
#16 = CLOSED_SHELL('',(#17,#65,#113,#150,#187,#215,#240,#265,#290,#311)
  );
#17 = ADVANCED_FACE('',(#18),#54,.F.);
#18 = FACE_BOUND('',#19,.F.);
#19 = EDGE_LOOP('',(#20,#29,#39,#46));
#20 = ORIENTED_EDGE('',*,*,#21,.T.);
#21 = EDGE_CURVE('',#22,#24,#26,.T.);
#22 = VERTEX_POINT('',#23);
#23 = CARTESIAN_POINT('',(35.870540088906,0.,17.935270044453));
#24 = VERTEX_POINT('',#25);
#25 = CARTESIAN_POINT('',(-35.8705400889,0.,17.935270044453));
#26 = B_SPLINE_CURVE_WITH_KNOTS('',1,(#27,#28),.UNSPECIFIED.,.F.,.F.,(2,
    2),(-62.,-0.),.PIECEWISE_BEZIER_KNOTS.);
#27 = CARTESIAN_POINT('',(35.870540088906,0.,17.935270044453));
#28 = CARTESIAN_POINT('',(-35.8705400889,0.,17.935270044453));
#29 = ORIENTED_EDGE('',*,*,#30,.F.);
#30 = EDGE_CURVE('',#31,#24,#33,.T.);
#31 = VERTEX_POINT('',#32);
#32 = CARTESIAN_POINT('',(-35.8705400889,2.196437105178E-15,
    -17.93527004445));
#33 = ( BOUNDED_CURVE() B_SPLINE_CURVE(2,(#34,#35,#36,#37,#38),
.UNSPECIFIED.,.F.,.F.) B_SPLINE_CURVE_WITH_KNOTS((3,2,3),(3.14159265359,
4.712388980385,6.28318530718),.PIECEWISE_BEZIER_KNOTS.) CURVE() 
GEOMETRIC_REPRESENTATION_ITEM() RATIONAL_B_SPLINE_CURVE((1.,
0.707106781187,1.,0.707106781187,1.)) REPRESENTATION_ITEM('') );
#34 = CARTESIAN_POINT('',(-35.8705400889,2.196437105178E-15,
    -17.93527004445));
#35 = CARTESIAN_POINT('',(-35.8705400889,-17.93527004445,-17.93527004445
    ));
#36 = CARTESIAN_POINT('',(-35.8705400889,-17.93527004445,
    -3.294655657767E-15));
#37 = CARTESIAN_POINT('',(-35.8705400889,-17.93527004445,17.935270044453
    ));
#38 = CARTESIAN_POINT('',(-35.8705400889,-4.392874210357E-15,
    17.935270044453));
#39 = ORIENTED_EDGE('',*,*,#40,.F.);
#40 = EDGE_CURVE('',#41,#31,#43,.T.);
#41 = VERTEX_POINT('',#42);
#42 = CARTESIAN_POINT('',(35.870540088906,2.196437105178E-15,
    -17.93527004445));
#43 = B_SPLINE_CURVE_WITH_KNOTS('',1,(#44,#45),.UNSPECIFIED.,.F.,.F.,(2,
    2),(-62.,-0.),.PIECEWISE_BEZIER_KNOTS.);
#44 = CARTESIAN_POINT('',(35.870540088906,2.196437105178E-15,
    -17.93527004445));
#45 = CARTESIAN_POINT('',(-35.8705400889,2.196437105178E-15,
    -17.93527004445));
#46 = ORIENTED_EDGE('',*,*,#47,.T.);
#47 = EDGE_CURVE('',#41,#22,#48,.T.);
#48 = ( BOUNDED_CURVE() B_SPLINE_CURVE(2,(#49,#50,#51,#52,#53),
.UNSPECIFIED.,.F.,.F.) B_SPLINE_CURVE_WITH_KNOTS((3,2,3),(3.14159265359,
4.712388980385,6.28318530718),.PIECEWISE_BEZIER_KNOTS.) CURVE() 
GEOMETRIC_REPRESENTATION_ITEM() RATIONAL_B_SPLINE_CURVE((1.,
0.707106781187,1.,0.707106781187,1.)) REPRESENTATION_ITEM('') );
#49 = CARTESIAN_POINT('',(35.870540088906,2.196437105178E-15,
    -17.93527004445));
#50 = CARTESIAN_POINT('',(35.870540088906,-17.93527004445,
    -17.93527004445));
#51 = CARTESIAN_POINT('',(35.870540088906,-17.93527004445,
    -3.294655657767E-15));
#52 = CARTESIAN_POINT('',(35.870540088906,-17.93527004445,
    17.935270044453));
#53 = CARTESIAN_POINT('',(35.870540088906,-4.392874210357E-15,
    17.935270044453));
#54 = ( BOUNDED_SURFACE() B_SPLINE_SURFACE(2,1,(
    (#55,#56)
    ,(#57,#58)
    ,(#59,#60)
    ,(#61,#62)
,(#63,#64
    )),.UNSPECIFIED.,.F.,.F.,.F.) B_SPLINE_SURFACE_WITH_KNOTS((3,2,3),(2
    ,2),(3.14159265359,4.712388980385,6.28318530718),(-62.,0.),
.PIECEWISE_BEZIER_KNOTS.) GEOMETRIC_REPRESENTATION_ITEM() 
RATIONAL_B_SPLINE_SURFACE((
    (1.,1.)
    ,(0.707106781187,0.707106781187)
    ,(1.,1.)
    ,(0.707106781187,0.707106781187)
,(1.,1.))) REPRESENTATION_ITEM('') SURFACE() );
#55 = CARTESIAN_POINT('',(35.870540088906,2.196437105178E-15,
    -17.93527004445));
#56 = CARTESIAN_POINT('',(-35.8705400889,2.196437105178E-15,
    -17.93527004445));
#57 = CARTESIAN_POINT('',(35.870540088906,-17.93527004445,
    -17.93527004445));
#58 = CARTESIAN_POINT('',(-35.8705400889,-17.93527004445,-17.93527004445
    ));
#59 = CARTESIAN_POINT('',(35.870540088906,-17.93527004445,
    -3.294655657767E-15));
#60 = CARTESIAN_POINT('',(-35.8705400889,-17.93527004445,
    -3.294655657767E-15));
#61 = CARTESIAN_POINT('',(35.870540088906,-17.93527004445,
    17.935270044453));
#62 = CARTESIAN_POINT('',(-35.8705400889,-17.93527004445,17.935270044453
    ));
#63 = CARTESIAN_POINT('',(35.870540088906,-4.392874210357E-15,
    17.935270044453));
#64 = CARTESIAN_POINT('',(-35.8705400889,-4.392874210357E-15,
    17.935270044453));
#65 = ADVANCED_FACE('',(#66),#102,.T.);
#66 = FACE_BOUND('',#67,.T.);
#67 = EDGE_LOOP('',(#68,#80,#87,#97));
#68 = ORIENTED_EDGE('',*,*,#69,.T.);
#69 = EDGE_CURVE('',#70,#72,#74,.T.);
#70 = VERTEX_POINT('',#71);
#71 = CARTESIAN_POINT('',(35.870540088906,0.,27.770740713992));
#72 = VERTEX_POINT('',#73);
#73 = CARTESIAN_POINT('',(35.870540088906,3.542640492223E-15,
    -27.77074071399));
#74 = ( BOUNDED_CURVE() B_SPLINE_CURVE(2,(#75,#76,#77,#78,#79),
.UNSPECIFIED.,.F.,.F.) B_SPLINE_CURVE_WITH_KNOTS((3,2,3),(0.,
1.570796326795,3.14159265359),.PIECEWISE_BEZIER_KNOTS.) CURVE() 
GEOMETRIC_REPRESENTATION_ITEM() RATIONAL_B_SPLINE_CURVE((1.,
0.707106781187,1.,0.707106781187,1.)) REPRESENTATION_ITEM('') );
#75 = CARTESIAN_POINT('',(35.870540088906,0.,27.770740713992));
#76 = CARTESIAN_POINT('',(35.870540088906,27.770740713992,
    27.770740713992));
#77 = CARTESIAN_POINT('',(35.870540088906,27.770740713992,
    1.700467436267E-15));
#78 = CARTESIAN_POINT('',(35.870540088906,27.770740713992,
    -27.77074071399));
#79 = CARTESIAN_POINT('',(35.870540088906,3.400934872534E-15,
    -27.77074071399));
#80 = ORIENTED_EDGE('',*,*,#81,.T.);
#81 = EDGE_CURVE('',#72,#82,#84,.T.);
#82 = VERTEX_POINT('',#83);
#83 = CARTESIAN_POINT('',(33.556311696074,3.684346111912E-15,
    -30.08496910682));
#84 = B_SPLINE_CURVE_WITH_KNOTS('',1,(#85,#86),.UNSPECIFIED.,.F.,.F.,(2,
    2),(1.060490312471E-32,2.828427124746),.PIECEWISE_BEZIER_KNOTS.);
#85 = CARTESIAN_POINT('',(35.870540088906,3.400934872534E-15,
    -27.77074071399));
#86 = CARTESIAN_POINT('',(33.556311696074,3.684346111912E-15,
    -30.08496910682));
#87 = ORIENTED_EDGE('',*,*,#88,.F.);
#88 = EDGE_CURVE('',#89,#82,#91,.T.);
#89 = VERTEX_POINT('',#90);
#90 = CARTESIAN_POINT('',(33.556311696074,0.,30.084969106825));
#91 = ( BOUNDED_CURVE() B_SPLINE_CURVE(2,(#92,#93,#94,#95,#96),
.UNSPECIFIED.,.F.,.F.) B_SPLINE_CURVE_WITH_KNOTS((3,2,3),(0.,
1.570796326795,3.14159265359),.PIECEWISE_BEZIER_KNOTS.) CURVE() 
GEOMETRIC_REPRESENTATION_ITEM() RATIONAL_B_SPLINE_CURVE((1.,
0.707106781187,1.,0.707106781187,1.)) REPRESENTATION_ITEM('') );
#92 = CARTESIAN_POINT('',(33.556311696074,0.,30.084969106825));
#93 = CARTESIAN_POINT('',(33.556311696074,30.084969106825,
    30.084969106825));
#94 = CARTESIAN_POINT('',(33.556311696074,30.084969106825,
    1.842173055956E-15));
#95 = CARTESIAN_POINT('',(33.556311696074,30.084969106825,
    -30.08496910682));
#96 = CARTESIAN_POINT('',(33.556311696074,3.684346111912E-15,
    -30.08496910682));
#97 = ORIENTED_EDGE('',*,*,#98,.F.);
#98 = EDGE_CURVE('',#70,#89,#99,.T.);
#99 = B_SPLINE_CURVE_WITH_KNOTS('',1,(#100,#101),.UNSPECIFIED.,.F.,.F.,(
    2,2),(0.,2.828427124746),.PIECEWISE_BEZIER_KNOTS.);
#100 = CARTESIAN_POINT('',(35.870540088906,0.,27.770740713992));
#101 = CARTESIAN_POINT('',(33.556311696074,0.,30.084969106825));
#102 = ( BOUNDED_SURFACE() B_SPLINE_SURFACE(2,1,(
    (#103,#104)
    ,(#105,#106)
    ,(#107,#108)
    ,(#109,#110)
,(#111,#112
    )),.UNSPECIFIED.,.F.,.F.,.F.) B_SPLINE_SURFACE_WITH_KNOTS((3,2,3),(2
    ,2),(0.,1.570796326795,3.14159265359),(0.,2.828427124746),
.PIECEWISE_BEZIER_KNOTS.) GEOMETRIC_REPRESENTATION_ITEM() 
RATIONAL_B_SPLINE_SURFACE((
    (1.,1.)
    ,(0.707106781187,0.707106781187)
    ,(1.,1.)
    ,(0.707106781187,0.707106781187)
,(1.,1.))) REPRESENTATION_ITEM('') SURFACE() );
#103 = CARTESIAN_POINT('',(35.870540088906,0.,27.770740713992));
#104 = CARTESIAN_POINT('',(33.556311696074,0.,30.084969106825));
#105 = CARTESIAN_POINT('',(35.870540088906,27.770740713992,
    27.770740713992));
#106 = CARTESIAN_POINT('',(33.556311696074,30.084969106825,
    30.084969106825));
#107 = CARTESIAN_POINT('',(35.870540088906,27.770740713992,
    1.700467436267E-15));
#108 = CARTESIAN_POINT('',(33.556311696074,30.084969106825,
    1.842173055956E-15));
#109 = CARTESIAN_POINT('',(35.870540088906,27.770740713992,
    -27.77074071399));
#110 = CARTESIAN_POINT('',(33.556311696074,30.084969106825,
    -30.08496910682));
#111 = CARTESIAN_POINT('',(35.870540088906,3.400934872534E-15,
    -27.77074071399));
#112 = CARTESIAN_POINT('',(33.556311696074,3.684346111912E-15,
    -30.08496910682));
#113 = ADVANCED_FACE('',(#114),#139,.T.);
#114 = FACE_BOUND('',#115,.T.);
#115 = EDGE_LOOP('',(#116,#117,#124,#134));
#116 = ORIENTED_EDGE('',*,*,#88,.T.);
#117 = ORIENTED_EDGE('',*,*,#118,.T.);
#118 = EDGE_CURVE('',#82,#119,#121,.T.);
#119 = VERTEX_POINT('',#120);
#120 = CARTESIAN_POINT('',(-33.55631169607,0.,-30.08496910682));
#121 = B_SPLINE_CURVE_WITH_KNOTS('',1,(#122,#123),.UNSPECIFIED.,.F.,.F.,
  (2,2),(-60.,-2.),.PIECEWISE_BEZIER_KNOTS.);
#122 = CARTESIAN_POINT('',(33.556311696074,3.684346111912E-15,
    -30.08496910682));
#123 = CARTESIAN_POINT('',(-33.55631169607,3.684346111912E-15,
    -30.08496910682));
#124 = ORIENTED_EDGE('',*,*,#125,.F.);
#125 = EDGE_CURVE('',#126,#119,#128,.T.);
#126 = VERTEX_POINT('',#127);
#127 = CARTESIAN_POINT('',(-33.55631169607,3.684346111912E-15,
    30.084969106825));
#128 = ( BOUNDED_CURVE() B_SPLINE_CURVE(2,(#129,#130,#131,#132,#133),
.UNSPECIFIED.,.F.,.F.) B_SPLINE_CURVE_WITH_KNOTS((3,2,3),(0.,
1.570796326795,3.14159265359),.PIECEWISE_BEZIER_KNOTS.) CURVE() 
GEOMETRIC_REPRESENTATION_ITEM() RATIONAL_B_SPLINE_CURVE((1.,
0.707106781187,1.,0.707106781187,1.)) REPRESENTATION_ITEM('') );
#129 = CARTESIAN_POINT('',(-33.55631169607,0.,30.084969106825));
#130 = CARTESIAN_POINT('',(-33.55631169607,30.084969106825,
    30.084969106825));
#131 = CARTESIAN_POINT('',(-33.55631169607,30.084969106825,
    1.842173055956E-15));
#132 = CARTESIAN_POINT('',(-33.55631169607,30.084969106825,
    -30.08496910682));
#133 = CARTESIAN_POINT('',(-33.55631169607,3.684346111912E-15,
    -30.08496910682));
#134 = ORIENTED_EDGE('',*,*,#135,.F.);
#135 = EDGE_CURVE('',#89,#126,#136,.T.);
#136 = B_SPLINE_CURVE_WITH_KNOTS('',1,(#137,#138),.UNSPECIFIED.,.F.,.F.,
  (2,2),(-60.,-2.),.PIECEWISE_BEZIER_KNOTS.);
#137 = CARTESIAN_POINT('',(33.556311696074,0.,30.084969106825));
#138 = CARTESIAN_POINT('',(-33.55631169607,0.,30.084969106825));
#139 = ( BOUNDED_SURFACE() B_SPLINE_SURFACE(2,1,(
    (#140,#141)
    ,(#142,#143)
    ,(#144,#145)
    ,(#146,#147)
,(#148,#149
    )),.UNSPECIFIED.,.F.,.F.,.F.) B_SPLINE_SURFACE_WITH_KNOTS((3,2,3),(2
    ,2),(0.,1.570796326795,3.14159265359),(-60.,-2.),
.PIECEWISE_BEZIER_KNOTS.) GEOMETRIC_REPRESENTATION_ITEM() 
RATIONAL_B_SPLINE_SURFACE((
    (1.,1.)
    ,(0.707106781187,0.707106781187)
    ,(1.,1.)
    ,(0.707106781187,0.707106781187)
,(1.,1.))) REPRESENTATION_ITEM('') SURFACE() );
#140 = CARTESIAN_POINT('',(33.556311696074,0.,30.084969106825));
#141 = CARTESIAN_POINT('',(-33.55631169607,0.,30.084969106825));
#142 = CARTESIAN_POINT('',(33.556311696074,30.084969106825,
    30.084969106825));
#143 = CARTESIAN_POINT('',(-33.55631169607,30.084969106825,
    30.084969106825));
#144 = CARTESIAN_POINT('',(33.556311696074,30.084969106825,
    1.842173055956E-15));
#145 = CARTESIAN_POINT('',(-33.55631169607,30.084969106825,
    1.842173055956E-15));
#146 = CARTESIAN_POINT('',(33.556311696074,30.084969106825,
    -30.08496910682));
#147 = CARTESIAN_POINT('',(-33.55631169607,30.084969106825,
    -30.08496910682));
#148 = CARTESIAN_POINT('',(33.556311696074,3.684346111912E-15,
    -30.08496910682));
#149 = CARTESIAN_POINT('',(-33.55631169607,3.684346111912E-15,
    -30.08496910682));
#150 = ADVANCED_FACE('',(#151),#176,.T.);
#151 = FACE_BOUND('',#152,.T.);
#152 = EDGE_LOOP('',(#153,#165,#170,#171));
#153 = ORIENTED_EDGE('',*,*,#154,.F.);
#154 = EDGE_CURVE('',#155,#157,#159,.T.);
#155 = VERTEX_POINT('',#156);
#156 = CARTESIAN_POINT('',(-35.8705400889,3.542640492223E-15,
    27.770740713992));
#157 = VERTEX_POINT('',#158);
#158 = CARTESIAN_POINT('',(-35.8705400889,0.,-27.77074071399));
#159 = ( BOUNDED_CURVE() B_SPLINE_CURVE(2,(#160,#161,#162,#163,#164),
.UNSPECIFIED.,.F.,.F.) B_SPLINE_CURVE_WITH_KNOTS((3,2,3),(0.,
1.570796326795,3.14159265359),.PIECEWISE_BEZIER_KNOTS.) CURVE() 
GEOMETRIC_REPRESENTATION_ITEM() RATIONAL_B_SPLINE_CURVE((1.,
0.707106781187,1.,0.707106781187,1.)) REPRESENTATION_ITEM('') );
#160 = CARTESIAN_POINT('',(-35.8705400889,0.,27.770740713992));
#161 = CARTESIAN_POINT('',(-35.8705400889,27.770740713992,
    27.770740713992));
#162 = CARTESIAN_POINT('',(-35.8705400889,27.770740713992,
    1.700467436267E-15));
#163 = CARTESIAN_POINT('',(-35.8705400889,27.770740713992,
    -27.77074071399));
#164 = CARTESIAN_POINT('',(-35.8705400889,3.400934872534E-15,
    -27.77074071399));
#165 = ORIENTED_EDGE('',*,*,#166,.T.);
#166 = EDGE_CURVE('',#155,#126,#167,.T.);
#167 = B_SPLINE_CURVE_WITH_KNOTS('',1,(#168,#169),.UNSPECIFIED.,.F.,.F.,
  (2,2),(-2.828427124746,0.),.PIECEWISE_BEZIER_KNOTS.);
#168 = CARTESIAN_POINT('',(-35.8705400889,3.400934872534E-15,
    27.770740713992));
#169 = CARTESIAN_POINT('',(-33.55631169607,3.684346111912E-15,
    30.084969106825));
#170 = ORIENTED_EDGE('',*,*,#125,.T.);
#171 = ORIENTED_EDGE('',*,*,#172,.F.);
#172 = EDGE_CURVE('',#157,#119,#173,.T.);
#173 = B_SPLINE_CURVE_WITH_KNOTS('',1,(#174,#175),.UNSPECIFIED.,.F.,.F.,
  (2,2),(-2.828427124746,0.),.PIECEWISE_BEZIER_KNOTS.);
#174 = CARTESIAN_POINT('',(-35.8705400889,0.,-27.77074071399));
#175 = CARTESIAN_POINT('',(-33.55631169607,0.,-30.08496910682));
#176 = ( BOUNDED_SURFACE() B_SPLINE_SURFACE(2,1,(
    (#177,#178)
    ,(#179,#180)
    ,(#181,#182)
    ,(#183,#184)
,(#185,#186
    )),.UNSPECIFIED.,.F.,.F.,.F.) B_SPLINE_SURFACE_WITH_KNOTS((3,2,3),(2
    ,2),(0.,1.570796326795,3.14159265359),(-2.828427124746,0.),
.PIECEWISE_BEZIER_KNOTS.) GEOMETRIC_REPRESENTATION_ITEM() 
RATIONAL_B_SPLINE_SURFACE((
    (1.,1.)
    ,(0.707106781187,0.707106781187)
    ,(1.,1.)
    ,(0.707106781187,0.707106781187)
,(1.,1.))) REPRESENTATION_ITEM('') SURFACE() );
#177 = CARTESIAN_POINT('',(-35.8705400889,0.,-27.77074071399));
#178 = CARTESIAN_POINT('',(-33.55631169607,0.,-30.08496910682));
#179 = CARTESIAN_POINT('',(-35.8705400889,27.770740713992,
    -27.77074071399));
#180 = CARTESIAN_POINT('',(-33.55631169607,30.084969106825,
    -30.08496910682));
#181 = CARTESIAN_POINT('',(-35.8705400889,27.770740713992,
    -1.700467436267E-15));
#182 = CARTESIAN_POINT('',(-33.55631169607,30.084969106825,
    -1.842173055956E-15));
#183 = CARTESIAN_POINT('',(-35.8705400889,27.770740713992,
    27.770740713992));
#184 = CARTESIAN_POINT('',(-33.55631169607,30.084969106825,
    30.084969106825));
#185 = CARTESIAN_POINT('',(-35.8705400889,3.400934872534E-15,
    27.770740713992));
#186 = CARTESIAN_POINT('',(-33.55631169607,3.684346111912E-15,
    30.084969106825));
#187 = ADVANCED_FACE('',(#188,#199),#210,.F.);
#188 = FACE_BOUND('',#189,.T.);
#189 = EDGE_LOOP('',(#190,#198));
#190 = ORIENTED_EDGE('',*,*,#191,.F.);
#191 = EDGE_CURVE('',#24,#31,#192,.T.);
#192 = ( BOUNDED_CURVE() B_SPLINE_CURVE(2,(#193,#194,#195,#196,#197),
.UNSPECIFIED.,.F.,.F.) B_SPLINE_CURVE_WITH_KNOTS((3,2,3),(0.,
1.570796326795,3.14159265359),.PIECEWISE_BEZIER_KNOTS.) CURVE() 
GEOMETRIC_REPRESENTATION_ITEM() RATIONAL_B_SPLINE_CURVE((1.,
0.707106781187,1.,0.707106781187,1.)) REPRESENTATION_ITEM('') );
#193 = CARTESIAN_POINT('',(-35.8705400889,0.,17.935270044453));
#194 = CARTESIAN_POINT('',(-35.8705400889,17.935270044453,
    17.935270044453));
#195 = CARTESIAN_POINT('',(-35.8705400889,17.935270044453,
    1.098218552589E-15));
#196 = CARTESIAN_POINT('',(-35.8705400889,17.935270044453,
    -17.93527004445));
#197 = CARTESIAN_POINT('',(-35.8705400889,2.196437105178E-15,
    -17.93527004445));
#198 = ORIENTED_EDGE('',*,*,#30,.F.);
#199 = FACE_BOUND('',#200,.T.);
#200 = EDGE_LOOP('',(#201,#209));
#201 = ORIENTED_EDGE('',*,*,#202,.T.);
#202 = EDGE_CURVE('',#157,#155,#203,.T.);
#203 = ( BOUNDED_CURVE() B_SPLINE_CURVE(2,(#204,#205,#206,#207,#208),
.UNSPECIFIED.,.F.,.F.) B_SPLINE_CURVE_WITH_KNOTS((3,2,3),(3.14159265359,
4.712388980385,6.28318530718),.PIECEWISE_BEZIER_KNOTS.) CURVE() 
GEOMETRIC_REPRESENTATION_ITEM() RATIONAL_B_SPLINE_CURVE((1.,
0.707106781187,1.,0.707106781187,1.)) REPRESENTATION_ITEM('') );
#204 = CARTESIAN_POINT('',(-35.8705400889,3.400934872534E-15,
    -27.77074071399));
#205 = CARTESIAN_POINT('',(-35.8705400889,-27.77074071399,
    -27.77074071399));
#206 = CARTESIAN_POINT('',(-35.8705400889,-27.77074071399,
    -5.101402308801E-15));
#207 = CARTESIAN_POINT('',(-35.8705400889,-27.77074071399,
    27.770740713992));
#208 = CARTESIAN_POINT('',(-35.8705400889,-6.801869745068E-15,
    27.770740713992));
#209 = ORIENTED_EDGE('',*,*,#154,.T.);
#210 = B_SPLINE_SURFACE_WITH_KNOTS('',1,1,(
    (#211,#212)
    ,(#213,#214
    )),.UNSPECIFIED.,.F.,.F.,.F.,(2,2),(2,2),(-24.,24.),(-39.5,8.5),
  .PIECEWISE_BEZIER_KNOTS.);
#211 = CARTESIAN_POINT('',(-35.8705400889,-27.77074071399,
    27.770740713992));
#212 = CARTESIAN_POINT('',(-35.8705400889,27.770740713992,
    27.770740713992));
#213 = CARTESIAN_POINT('',(-35.8705400889,-27.77074071399,
    -27.77074071399));
#214 = CARTESIAN_POINT('',(-35.8705400889,27.770740713992,
    -27.77074071399));
#215 = ADVANCED_FACE('',(#216),#229,.T.);
#216 = FACE_BOUND('',#217,.T.);
#217 = EDGE_LOOP('',(#218,#219,#220,#221));
#218 = ORIENTED_EDGE('',*,*,#166,.F.);
#219 = ORIENTED_EDGE('',*,*,#202,.F.);
#220 = ORIENTED_EDGE('',*,*,#172,.T.);
#221 = ORIENTED_EDGE('',*,*,#222,.T.);
#222 = EDGE_CURVE('',#119,#126,#223,.T.);
#223 = ( BOUNDED_CURVE() B_SPLINE_CURVE(2,(#224,#225,#226,#227,#228),
.UNSPECIFIED.,.F.,.F.) B_SPLINE_CURVE_WITH_KNOTS((3,2,3),(3.14159265359,
4.712388980385,6.28318530718),.PIECEWISE_BEZIER_KNOTS.) CURVE() 
GEOMETRIC_REPRESENTATION_ITEM() RATIONAL_B_SPLINE_CURVE((1.,
0.707106781187,1.,0.707106781187,1.)) REPRESENTATION_ITEM('') );
#224 = CARTESIAN_POINT('',(-33.55631169607,3.684346111912E-15,
    -30.08496910682));
#225 = CARTESIAN_POINT('',(-33.55631169607,-30.08496910682,
    -30.08496910682));
#226 = CARTESIAN_POINT('',(-33.55631169607,-30.08496910682,
    -5.526519167868E-15));
#227 = CARTESIAN_POINT('',(-33.55631169607,-30.08496910682,
    30.084969106825));
#228 = CARTESIAN_POINT('',(-33.55631169607,-7.368692223824E-15,
    30.084969106825));
#229 = ( BOUNDED_SURFACE() B_SPLINE_SURFACE(2,1,(
    (#230,#231)
    ,(#232,#233)
    ,(#234,#235)
    ,(#236,#237)
,(#238,#239
    )),.UNSPECIFIED.,.F.,.F.,.F.) B_SPLINE_SURFACE_WITH_KNOTS((3,2,3),(2
    ,2),(3.14159265359,4.712388980385,6.28318530718),(-2.828427124746,0.
),.PIECEWISE_BEZIER_KNOTS.) GEOMETRIC_REPRESENTATION_ITEM() 
RATIONAL_B_SPLINE_SURFACE((
    (1.,1.)
    ,(0.707106781187,0.707106781187)
    ,(1.,1.)
    ,(0.707106781187,0.707106781187)
,(1.,1.))) REPRESENTATION_ITEM('') SURFACE() );
#230 = CARTESIAN_POINT('',(-35.8705400889,3.400934872534E-15,
    27.770740713992));
#231 = CARTESIAN_POINT('',(-33.55631169607,3.684346111912E-15,
    30.084969106825));
#232 = CARTESIAN_POINT('',(-35.8705400889,-27.77074071399,
    27.770740713992));
#233 = CARTESIAN_POINT('',(-33.55631169607,-30.08496910682,
    30.084969106825));
#234 = CARTESIAN_POINT('',(-35.8705400889,-27.77074071399,
    5.101402308801E-15));
#235 = CARTESIAN_POINT('',(-33.55631169607,-30.08496910682,
    5.526519167868E-15));
#236 = CARTESIAN_POINT('',(-35.8705400889,-27.77074071399,
    -27.77074071399));
#237 = CARTESIAN_POINT('',(-33.55631169607,-30.08496910682,
    -30.08496910682));
#238 = CARTESIAN_POINT('',(-35.8705400889,-6.801869745068E-15,
    -27.77074071399));
#239 = CARTESIAN_POINT('',(-33.55631169607,-7.368692223824E-15,
    -30.08496910682));
#240 = ADVANCED_FACE('',(#241),#254,.T.);
#241 = FACE_BOUND('',#242,.T.);
#242 = EDGE_LOOP('',(#243,#244,#252,#253));
#243 = ORIENTED_EDGE('',*,*,#118,.F.);
#244 = ORIENTED_EDGE('',*,*,#245,.T.);
#245 = EDGE_CURVE('',#82,#89,#246,.T.);
#246 = ( BOUNDED_CURVE() B_SPLINE_CURVE(2,(#247,#248,#249,#250,#251),
.UNSPECIFIED.,.F.,.F.) B_SPLINE_CURVE_WITH_KNOTS((3,2,3),(3.14159265359,
4.712388980385,6.28318530718),.PIECEWISE_BEZIER_KNOTS.) CURVE() 
GEOMETRIC_REPRESENTATION_ITEM() RATIONAL_B_SPLINE_CURVE((1.,
0.707106781187,1.,0.707106781187,1.)) REPRESENTATION_ITEM('') );
#247 = CARTESIAN_POINT('',(33.556311696074,3.684346111912E-15,
    -30.08496910682));
#248 = CARTESIAN_POINT('',(33.556311696074,-30.08496910682,
    -30.08496910682));
#249 = CARTESIAN_POINT('',(33.556311696074,-30.08496910682,
    -5.526519167868E-15));
#250 = CARTESIAN_POINT('',(33.556311696074,-30.08496910682,
    30.084969106825));
#251 = CARTESIAN_POINT('',(33.556311696074,-7.368692223824E-15,
    30.084969106825));
#252 = ORIENTED_EDGE('',*,*,#135,.T.);
#253 = ORIENTED_EDGE('',*,*,#222,.F.);
#254 = ( BOUNDED_SURFACE() B_SPLINE_SURFACE(2,1,(
    (#255,#256)
    ,(#257,#258)
    ,(#259,#260)
    ,(#261,#262)
,(#263,#264
    )),.UNSPECIFIED.,.F.,.F.,.F.) B_SPLINE_SURFACE_WITH_KNOTS((3,2,3),(2
    ,2),(3.14159265359,4.712388980385,6.28318530718),(-60.,-2.),
.PIECEWISE_BEZIER_KNOTS.) GEOMETRIC_REPRESENTATION_ITEM() 
RATIONAL_B_SPLINE_SURFACE((
    (1.,1.)
    ,(0.707106781187,0.707106781187)
    ,(1.,1.)
    ,(0.707106781187,0.707106781187)
,(1.,1.))) REPRESENTATION_ITEM('') SURFACE() );
#255 = CARTESIAN_POINT('',(33.556311696074,3.684346111912E-15,
    -30.08496910682));
#256 = CARTESIAN_POINT('',(-33.55631169607,3.684346111912E-15,
    -30.08496910682));
#257 = CARTESIAN_POINT('',(33.556311696074,-30.08496910682,
    -30.08496910682));
#258 = CARTESIAN_POINT('',(-33.55631169607,-30.08496910682,
    -30.08496910682));
#259 = CARTESIAN_POINT('',(33.556311696074,-30.08496910682,
    -5.526519167868E-15));
#260 = CARTESIAN_POINT('',(-33.55631169607,-30.08496910682,
    -5.526519167868E-15));
#261 = CARTESIAN_POINT('',(33.556311696074,-30.08496910682,
    30.084969106825));
#262 = CARTESIAN_POINT('',(-33.55631169607,-30.08496910682,
    30.084969106825));
#263 = CARTESIAN_POINT('',(33.556311696074,-7.368692223824E-15,
    30.084969106825));
#264 = CARTESIAN_POINT('',(-33.55631169607,-7.368692223824E-15,
    30.084969106825));
#265 = ADVANCED_FACE('',(#266),#279,.T.);
#266 = FACE_BOUND('',#267,.T.);
#267 = EDGE_LOOP('',(#268,#269,#277,#278));
#268 = ORIENTED_EDGE('',*,*,#81,.F.);
#269 = ORIENTED_EDGE('',*,*,#270,.T.);
#270 = EDGE_CURVE('',#72,#70,#271,.T.);
#271 = ( BOUNDED_CURVE() B_SPLINE_CURVE(2,(#272,#273,#274,#275,#276),
.UNSPECIFIED.,.F.,.F.) B_SPLINE_CURVE_WITH_KNOTS((3,2,3),(3.14159265359,
4.712388980385,6.28318530718),.PIECEWISE_BEZIER_KNOTS.) CURVE() 
GEOMETRIC_REPRESENTATION_ITEM() RATIONAL_B_SPLINE_CURVE((1.,
0.707106781187,1.,0.707106781187,1.)) REPRESENTATION_ITEM('') );
#272 = CARTESIAN_POINT('',(35.870540088906,3.400934872534E-15,
    -27.77074071399));
#273 = CARTESIAN_POINT('',(35.870540088906,-27.77074071399,
    -27.77074071399));
#274 = CARTESIAN_POINT('',(35.870540088906,-27.77074071399,
    -5.101402308801E-15));
#275 = CARTESIAN_POINT('',(35.870540088906,-27.77074071399,
    27.770740713992));
#276 = CARTESIAN_POINT('',(35.870540088906,-6.801869745068E-15,
    27.770740713992));
#277 = ORIENTED_EDGE('',*,*,#98,.T.);
#278 = ORIENTED_EDGE('',*,*,#245,.F.);
#279 = ( BOUNDED_SURFACE() B_SPLINE_SURFACE(2,1,(
    (#280,#281)
    ,(#282,#283)
    ,(#284,#285)
    ,(#286,#287)
,(#288,#289
    )),.UNSPECIFIED.,.F.,.F.,.F.) B_SPLINE_SURFACE_WITH_KNOTS((3,2,3),(2
    ,2),(3.14159265359,4.712388980385,6.28318530718),(0.,2.828427124746)
,.PIECEWISE_BEZIER_KNOTS.) GEOMETRIC_REPRESENTATION_ITEM() 
RATIONAL_B_SPLINE_SURFACE((
    (1.,1.)
    ,(0.707106781187,0.707106781187)
    ,(1.,1.)
    ,(0.707106781187,0.707106781187)
,(1.,1.))) REPRESENTATION_ITEM('') SURFACE() );
#280 = CARTESIAN_POINT('',(35.870540088906,3.400934872534E-15,
    -27.77074071399));
#281 = CARTESIAN_POINT('',(33.556311696074,3.684346111912E-15,
    -30.08496910682));
#282 = CARTESIAN_POINT('',(35.870540088906,-27.77074071399,
    -27.77074071399));
#283 = CARTESIAN_POINT('',(33.556311696074,-30.08496910682,
    -30.08496910682));
#284 = CARTESIAN_POINT('',(35.870540088906,-27.77074071399,
    -5.101402308801E-15));
#285 = CARTESIAN_POINT('',(33.556311696074,-30.08496910682,
    -5.526519167868E-15));
#286 = CARTESIAN_POINT('',(35.870540088906,-27.77074071399,
    27.770740713992));
#287 = CARTESIAN_POINT('',(33.556311696074,-30.08496910682,
    30.084969106825));
#288 = CARTESIAN_POINT('',(35.870540088906,-6.801869745068E-15,
    27.770740713992));
#289 = CARTESIAN_POINT('',(33.556311696074,-7.368692223824E-15,
    30.084969106825));
#290 = ADVANCED_FACE('',(#291,#295),#306,.F.);
#291 = FACE_BOUND('',#292,.T.);
#292 = EDGE_LOOP('',(#293,#294));
#293 = ORIENTED_EDGE('',*,*,#69,.F.);
#294 = ORIENTED_EDGE('',*,*,#270,.F.);
#295 = FACE_BOUND('',#296,.T.);
#296 = EDGE_LOOP('',(#297,#305));
#297 = ORIENTED_EDGE('',*,*,#298,.T.);
#298 = EDGE_CURVE('',#22,#41,#299,.T.);
#299 = ( BOUNDED_CURVE() B_SPLINE_CURVE(2,(#300,#301,#302,#303,#304),
.UNSPECIFIED.,.F.,.F.) B_SPLINE_CURVE_WITH_KNOTS((3,2,3),(0.,
1.570796326795,3.14159265359),.PIECEWISE_BEZIER_KNOTS.) CURVE() 
GEOMETRIC_REPRESENTATION_ITEM() RATIONAL_B_SPLINE_CURVE((1.,
0.707106781187,1.,0.707106781187,1.)) REPRESENTATION_ITEM('') );
#300 = CARTESIAN_POINT('',(35.870540088906,0.,17.935270044453));
#301 = CARTESIAN_POINT('',(35.870540088906,17.935270044453,
    17.935270044453));
#302 = CARTESIAN_POINT('',(35.870540088906,17.935270044453,
    1.098218552589E-15));
#303 = CARTESIAN_POINT('',(35.870540088906,17.935270044453,
    -17.93527004445));
#304 = CARTESIAN_POINT('',(35.870540088906,2.196437105178E-15,
    -17.93527004445));
#305 = ORIENTED_EDGE('',*,*,#47,.T.);
#306 = B_SPLINE_SURFACE_WITH_KNOTS('',1,1,(
    (#307,#308)
    ,(#309,#310
    )),.UNSPECIFIED.,.F.,.F.,.F.,(2,2),(2,2),(-24.,24.),(-39.5,8.5),
  .PIECEWISE_BEZIER_KNOTS.);
#307 = CARTESIAN_POINT('',(35.870540088906,-27.77074071399,
    -27.77074071399));
#308 = CARTESIAN_POINT('',(35.870540088906,27.770740713992,
    -27.77074071399));
#309 = CARTESIAN_POINT('',(35.870540088906,-27.77074071399,
    27.770740713992));
#310 = CARTESIAN_POINT('',(35.870540088906,27.770740713992,
    27.770740713992));
#311 = ADVANCED_FACE('',(#312),#318,.F.);
#312 = FACE_BOUND('',#313,.F.);
#313 = EDGE_LOOP('',(#314,#315,#316,#317));
#314 = ORIENTED_EDGE('',*,*,#191,.F.);
#315 = ORIENTED_EDGE('',*,*,#21,.F.);
#316 = ORIENTED_EDGE('',*,*,#298,.T.);
#317 = ORIENTED_EDGE('',*,*,#40,.T.);
#318 = ( BOUNDED_SURFACE() B_SPLINE_SURFACE(2,1,(
    (#319,#320)
    ,(#321,#322)
    ,(#323,#324)
    ,(#325,#326)
,(#327,#328
    )),.UNSPECIFIED.,.F.,.F.,.F.) B_SPLINE_SURFACE_WITH_KNOTS((3,2,3),(2
    ,2),(0.,1.570796326795,3.14159265359),(-62.,0.),
.PIECEWISE_BEZIER_KNOTS.) GEOMETRIC_REPRESENTATION_ITEM() 
RATIONAL_B_SPLINE_SURFACE((
    (1.,1.)
    ,(0.707106781187,0.707106781187)
    ,(1.,1.)
    ,(0.707106781187,0.707106781187)
,(1.,1.))) REPRESENTATION_ITEM('') SURFACE() );
#319 = CARTESIAN_POINT('',(35.870540088906,0.,17.935270044453));
#320 = CARTESIAN_POINT('',(-35.8705400889,0.,17.935270044453));
#321 = CARTESIAN_POINT('',(35.870540088906,17.935270044453,
    17.935270044453));
#322 = CARTESIAN_POINT('',(-35.8705400889,17.935270044453,
    17.935270044453));
#323 = CARTESIAN_POINT('',(35.870540088906,17.935270044453,
    1.098218552589E-15));
#324 = CARTESIAN_POINT('',(-35.8705400889,17.935270044453,
    1.098218552589E-15));
#325 = CARTESIAN_POINT('',(35.870540088906,17.935270044453,
    -17.93527004445));
#326 = CARTESIAN_POINT('',(-35.8705400889,17.935270044453,
    -17.93527004445));
#327 = CARTESIAN_POINT('',(35.870540088906,2.196437105178E-15,
    -17.93527004445));
#328 = CARTESIAN_POINT('',(-35.8705400889,2.196437105178E-15,
    -17.93527004445));
#329 = ( GEOMETRIC_REPRESENTATION_CONTEXT(3) 
GLOBAL_UNCERTAINTY_ASSIGNED_CONTEXT((#333)) GLOBAL_UNIT_ASSIGNED_CONTEXT
((#330,#331,#332)) REPRESENTATION_CONTEXT('Context #1',
  '3D Context with UNIT and UNCERTAINTY') );
#330 = ( LENGTH_UNIT() NAMED_UNIT(*) SI_UNIT(.MILLI.,.METRE.) );
#331 = ( NAMED_UNIT(*) PLANE_ANGLE_UNIT() SI_UNIT($,.RADIAN.) );
#332 = ( NAMED_UNIT(*) SI_UNIT($,.STERADIAN.) SOLID_ANGLE_UNIT() );
#333 = UNCERTAINTY_MEASURE_WITH_UNIT(LENGTH_MEASURE(1.E-07),#330,
  'distance_accuracy_value','confusion accuracy');
#334 = PRODUCT_RELATED_PRODUCT_CATEGORY('part',$,(#7));
ENDSEC;
END-ISO-10303-21;
