ISO-10303-21;
HEADER;
FILE_DESCRIPTION(('FreeCAD Model'),'2;1');
FILE_NAME('Open CASCADE Shape Model','2025-05-09T15:07:25',('FreeCAD'),(
    'FreeCAD'),'Open CASCADE STEP processor 7.6','FreeCAD','Unknown');
FILE_SCHEMA(('AUTOMOTIVE_DESIGN { 1 0 10303 214 1 1 1 1 }'));
ENDSEC;
DATA;
#1 = APPLICATION_PROTOCOL_DEFINITION('international standard',
  'automotive_design',2000,#2);
#2 = APPLICATION_CONTEXT(
  'core data for automotive mechanical design processes');
#3 = SHAPE_DEFINITION_REPRESENTATION(#4,#10);
#4 = PRODUCT_DEFINITION_SHAPE('','',#5);
#5 = PRODUCT_DEFINITION('design','',#6,#9);
#6 = PRODUCT_DEFINITION_FORMATION('','',#7);
#7 = PRODUCT('Open CASCADE STEP translator 7.6 1',
  'Open CASCADE STEP translator 7.6 1','',(#8));
#8 = PRODUCT_CONTEXT('',#2,'mechanical');
#9 = PRODUCT_DEFINITION_CONTEXT('part definition',#2,'design');
#10 = ADVANCED_BREP_SHAPE_REPRESENTATION('',(#11,#15),#253);
#11 = AXIS2_PLACEMENT_3D('',#12,#13,#14);
#12 = CARTESIAN_POINT('',(0.,0.,0.));
#13 = DIRECTION('',(0.,0.,1.));
#14 = DIRECTION('',(1.,0.,-0.));
#15 = MANIFOLD_SOLID_BREP('',#16);
#16 = CLOSED_SHELL('',(#17,#65,#101,#141,#169,#189,#212,#235));
#17 = ADVANCED_FACE('',(#18),#54,.F.);
#18 = FACE_BOUND('',#19,.F.);
#19 = EDGE_LOOP('',(#20,#29,#39,#46));
#20 = ORIENTED_EDGE('',*,*,#21,.T.);
#21 = EDGE_CURVE('',#22,#24,#26,.T.);
#22 = VERTEX_POINT('',#23);
#23 = CARTESIAN_POINT('',(0.,-18.74275344493,-85.89198822798));
#24 = VERTEX_POINT('',#25);
#25 = CARTESIAN_POINT('',(0.,0.,-85.89198822798));
#26 = B_SPLINE_CURVE_WITH_KNOTS('',1,(#27,#28),.UNSPECIFIED.,.F.,.F.,(2,
    2),(0.,12.7),.PIECEWISE_BEZIER_KNOTS.);
#27 = CARTESIAN_POINT('',(0.,-18.74275344493,-85.89198822798));
#28 = CARTESIAN_POINT('',(0.,0.,-85.89198822798));
#29 = ORIENTED_EDGE('',*,*,#30,.F.);
#30 = EDGE_CURVE('',#31,#24,#33,.T.);
#31 = VERTEX_POINT('',#32);
#32 = CARTESIAN_POINT('',(4.066521203188E-15,0.,-152.303319332));
#33 = ( BOUNDED_CURVE() B_SPLINE_CURVE(2,(#34,#35,#36,#37,#38),
.UNSPECIFIED.,.F.,.F.) B_SPLINE_CURVE_WITH_KNOTS((3,2,3),(3.14159265359,
4.712388980385,6.28318530718),.PIECEWISE_BEZIER_KNOTS.) CURVE() 
GEOMETRIC_REPRESENTATION_ITEM() RATIONAL_B_SPLINE_CURVE((1.,
0.707106781187,1.,0.707106781187,1.)) REPRESENTATION_ITEM('') );
#34 = CARTESIAN_POINT('',(4.066521203188E-15,0.,-152.303319332));
#35 = CARTESIAN_POINT('',(-33.20566555205,0.,-152.303319332));
#36 = CARTESIAN_POINT('',(-33.20566555205,0.,-119.09765378));
#37 = CARTESIAN_POINT('',(-33.20566555205,0.,-85.89198822798));
#38 = CARTESIAN_POINT('',(-8.133042406376E-15,0.,-85.89198822798));
#39 = ORIENTED_EDGE('',*,*,#40,.F.);
#40 = EDGE_CURVE('',#41,#31,#43,.T.);
#41 = VERTEX_POINT('',#42);
#42 = CARTESIAN_POINT('',(4.066521203188E-15,-18.74275344493,
    -152.303319332));
#43 = B_SPLINE_CURVE_WITH_KNOTS('',1,(#44,#45),.UNSPECIFIED.,.F.,.F.,(2,
    2),(0.,12.7),.PIECEWISE_BEZIER_KNOTS.);
#44 = CARTESIAN_POINT('',(4.066521203188E-15,-18.74275344493,
    -152.303319332));
#45 = CARTESIAN_POINT('',(4.066521203188E-15,0.,-152.303319332));
#46 = ORIENTED_EDGE('',*,*,#47,.T.);
#47 = EDGE_CURVE('',#41,#22,#48,.T.);
#48 = ( BOUNDED_CURVE() B_SPLINE_CURVE(2,(#49,#50,#51,#52,#53),
.UNSPECIFIED.,.F.,.F.) B_SPLINE_CURVE_WITH_KNOTS((3,2,3),(3.14159265359,
4.712388980385,6.28318530718),.PIECEWISE_BEZIER_KNOTS.) CURVE() 
GEOMETRIC_REPRESENTATION_ITEM() RATIONAL_B_SPLINE_CURVE((1.,
0.707106781187,1.,0.707106781187,1.)) REPRESENTATION_ITEM('') );
#49 = CARTESIAN_POINT('',(4.066521203188E-15,-18.74275344493,
    -152.303319332));
#50 = CARTESIAN_POINT('',(-33.20566555205,-18.74275344493,-152.303319332
    ));
#51 = CARTESIAN_POINT('',(-33.20566555205,-18.74275344493,-119.09765378)
  );
#52 = CARTESIAN_POINT('',(-33.20566555205,-18.74275344493,
    -85.89198822798));
#53 = CARTESIAN_POINT('',(-8.133042406376E-15,-18.74275344493,
    -85.89198822798));
#54 = ( BOUNDED_SURFACE() B_SPLINE_SURFACE(2,1,(
    (#55,#56)
    ,(#57,#58)
    ,(#59,#60)
    ,(#61,#62)
,(#63,#64
    )),.UNSPECIFIED.,.F.,.F.,.F.) B_SPLINE_SURFACE_WITH_KNOTS((3,2,3),(2
    ,2),(3.14159265359,4.712388980385,6.28318530718),(0.,12.7),
.PIECEWISE_BEZIER_KNOTS.) GEOMETRIC_REPRESENTATION_ITEM() 
RATIONAL_B_SPLINE_SURFACE((
    (1.,1.)
    ,(0.707106781187,0.707106781187)
    ,(1.,1.)
    ,(0.707106781187,0.707106781187)
,(1.,1.))) REPRESENTATION_ITEM('') SURFACE() );
#55 = CARTESIAN_POINT('',(4.066521203188E-15,-18.74275344493,
    -152.303319332));
#56 = CARTESIAN_POINT('',(4.066521203188E-15,0.,-152.303319332));
#57 = CARTESIAN_POINT('',(-33.20566555205,-18.74275344493,-152.303319332
    ));
#58 = CARTESIAN_POINT('',(-33.20566555205,0.,-152.303319332));
#59 = CARTESIAN_POINT('',(-33.20566555205,-18.74275344493,-119.09765378)
  );
#60 = CARTESIAN_POINT('',(-33.20566555205,0.,-119.09765378));
#61 = CARTESIAN_POINT('',(-33.20566555205,-18.74275344493,
    -85.89198822798));
#62 = CARTESIAN_POINT('',(-33.20566555205,0.,-85.89198822798));
#63 = CARTESIAN_POINT('',(-8.133042406376E-15,-18.74275344493,
    -85.89198822798));
#64 = CARTESIAN_POINT('',(-8.133042406376E-15,0.,-85.89198822798));
#65 = ADVANCED_FACE('',(#66),#96,.T.);
#66 = FACE_BOUND('',#67,.T.);
#67 = EDGE_LOOP('',(#68,#77,#84,#91));
#68 = ORIENTED_EDGE('',*,*,#69,.F.);
#69 = EDGE_CURVE('',#70,#72,#74,.T.);
#70 = VERTEX_POINT('',#71);
#71 = CARTESIAN_POINT('',(-59.03229431476,0.,-119.09765378));
#72 = VERTEX_POINT('',#73);
#73 = CARTESIAN_POINT('',(-59.03229431476,0.,0.));
#74 = B_SPLINE_CURVE_WITH_KNOTS('',1,(#75,#76),.UNSPECIFIED.,.F.,.F.,(2,
    2),(-1.42108547152E-14,80.7),.PIECEWISE_BEZIER_KNOTS.);
#75 = CARTESIAN_POINT('',(-59.03229431476,0.,-119.09765378));
#76 = CARTESIAN_POINT('',(-59.03229431476,0.,0.));
#77 = ORIENTED_EDGE('',*,*,#78,.F.);
#78 = EDGE_CURVE('',#79,#70,#81,.T.);
#79 = VERTEX_POINT('',#80);
#80 = CARTESIAN_POINT('',(-59.03229431476,-18.74275344493,-119.09765378)
  );
#81 = B_SPLINE_CURVE_WITH_KNOTS('',1,(#82,#83),.UNSPECIFIED.,.F.,.F.,(2,
    2),(0.,12.7),.PIECEWISE_BEZIER_KNOTS.);
#82 = CARTESIAN_POINT('',(-59.03229431476,-18.74275344493,-119.09765378)
  );
#83 = CARTESIAN_POINT('',(-59.03229431476,0.,-119.09765378));
#84 = ORIENTED_EDGE('',*,*,#85,.T.);
#85 = EDGE_CURVE('',#79,#86,#88,.T.);
#86 = VERTEX_POINT('',#87);
#87 = CARTESIAN_POINT('',(-59.03229431476,-18.74275344493,0.));
#88 = B_SPLINE_CURVE_WITH_KNOTS('',1,(#89,#90),.UNSPECIFIED.,.F.,.F.,(2,
    2),(-1.42108547152E-14,80.7),.PIECEWISE_BEZIER_KNOTS.);
#89 = CARTESIAN_POINT('',(-59.03229431476,-18.74275344493,-119.09765378)
  );
#90 = CARTESIAN_POINT('',(-59.03229431476,-18.74275344493,0.));
#91 = ORIENTED_EDGE('',*,*,#92,.T.);
#92 = EDGE_CURVE('',#86,#72,#93,.T.);
#93 = B_SPLINE_CURVE_WITH_KNOTS('',1,(#94,#95),.UNSPECIFIED.,.F.,.F.,(2,
    2),(0.,12.7),.PIECEWISE_BEZIER_KNOTS.);
#94 = CARTESIAN_POINT('',(-59.03229431476,-18.74275344493,0.));
#95 = CARTESIAN_POINT('',(-59.03229431476,0.,0.));
#96 = B_SPLINE_SURFACE_WITH_KNOTS('',1,1,(
    (#97,#98)
    ,(#99,#100
    )),.UNSPECIFIED.,.F.,.F.,.F.,(2,2),(2,2),(-1.42108547152E-14,80.7),(
    0.,12.7),.PIECEWISE_BEZIER_KNOTS.);
#97 = CARTESIAN_POINT('',(-59.03229431476,-18.74275344493,-119.09765378)
  );
#98 = CARTESIAN_POINT('',(-59.03229431476,0.,-119.09765378));
#99 = CARTESIAN_POINT('',(-59.03229431476,-18.74275344493,0.));
#100 = CARTESIAN_POINT('',(-59.03229431476,0.,0.));
#101 = ADVANCED_FACE('',(#102),#130,.T.);
#102 = FACE_BOUND('',#103,.T.);
#103 = EDGE_LOOP('',(#104,#114,#121,#129));
#104 = ORIENTED_EDGE('',*,*,#105,.F.);
#105 = EDGE_CURVE('',#106,#70,#108,.T.);
#106 = VERTEX_POINT('',#107);
#107 = CARTESIAN_POINT('',(59.032294314765,0.,-119.09765378));
#108 = ( BOUNDED_CURVE() B_SPLINE_CURVE(2,(#109,#110,#111,#112,#113),
.UNSPECIFIED.,.F.,.F.) B_SPLINE_CURVE_WITH_KNOTS((3,2,3),(1.570796326795
,3.14159265359,4.712388980385),.PIECEWISE_BEZIER_KNOTS.) CURVE() 
GEOMETRIC_REPRESENTATION_ITEM() RATIONAL_B_SPLINE_CURVE((1.,
0.707106781187,1.,0.707106781187,1.)) REPRESENTATION_ITEM('') );
#109 = CARTESIAN_POINT('',(59.032294314765,0.,-119.09765378));
#110 = CARTESIAN_POINT('',(59.032294314765,0.,-178.1299480948));
#111 = CARTESIAN_POINT('',(7.22937102789E-15,0.,-178.1299480948));
#112 = CARTESIAN_POINT('',(-59.03229431476,0.,-178.1299480948));
#113 = CARTESIAN_POINT('',(-59.03229431476,0.,-119.09765378));
#114 = ORIENTED_EDGE('',*,*,#115,.F.);
#115 = EDGE_CURVE('',#116,#106,#118,.T.);
#116 = VERTEX_POINT('',#117);
#117 = CARTESIAN_POINT('',(59.032294314765,-18.74275344493,-119.09765378
    ));
#118 = B_SPLINE_CURVE_WITH_KNOTS('',1,(#119,#120),.UNSPECIFIED.,.F.,.F.,
  (2,2),(0.,12.7),.PIECEWISE_BEZIER_KNOTS.);
#119 = CARTESIAN_POINT('',(59.032294314765,-18.74275344493,-119.09765378
    ));
#120 = CARTESIAN_POINT('',(59.032294314765,0.,-119.09765378));
#121 = ORIENTED_EDGE('',*,*,#122,.T.);
#122 = EDGE_CURVE('',#116,#79,#123,.T.);
#123 = ( BOUNDED_CURVE() B_SPLINE_CURVE(2,(#124,#125,#126,#127,#128),
.UNSPECIFIED.,.F.,.F.) B_SPLINE_CURVE_WITH_KNOTS((3,2,3),(1.570796326795
,3.14159265359,4.712388980385),.PIECEWISE_BEZIER_KNOTS.) CURVE() 
GEOMETRIC_REPRESENTATION_ITEM() RATIONAL_B_SPLINE_CURVE((1.,
0.707106781187,1.,0.707106781187,1.)) REPRESENTATION_ITEM('') );
#124 = CARTESIAN_POINT('',(59.032294314765,-18.74275344493,-119.09765378
    ));
#125 = CARTESIAN_POINT('',(59.032294314765,-18.74275344493,
    -178.1299480948));
#126 = CARTESIAN_POINT('',(7.22937102789E-15,-18.74275344493,
    -178.1299480948));
#127 = CARTESIAN_POINT('',(-59.03229431476,-18.74275344493,
    -178.1299480948));
#128 = CARTESIAN_POINT('',(-59.03229431476,-18.74275344493,-119.09765378
    ));
#129 = ORIENTED_EDGE('',*,*,#78,.T.);
#130 = ( BOUNDED_SURFACE() B_SPLINE_SURFACE(2,1,(
    (#131,#132)
    ,(#133,#134)
    ,(#135,#136)
    ,(#137,#138)
,(#139,#140
    )),.UNSPECIFIED.,.F.,.F.,.F.) B_SPLINE_SURFACE_WITH_KNOTS((3,2,3),(2
    ,2),(1.570796326795,3.14159265359,4.712388980385),(0.,12.7),
.PIECEWISE_BEZIER_KNOTS.) GEOMETRIC_REPRESENTATION_ITEM() 
RATIONAL_B_SPLINE_SURFACE((
    (1.,1.)
    ,(0.707106781187,0.707106781187)
    ,(1.,1.)
    ,(0.707106781187,0.707106781187)
,(1.,1.))) REPRESENTATION_ITEM('') SURFACE() );
#131 = CARTESIAN_POINT('',(59.032294314765,-18.74275344493,-119.09765378
    ));
#132 = CARTESIAN_POINT('',(59.032294314765,0.,-119.09765378));
#133 = CARTESIAN_POINT('',(59.032294314765,-18.74275344493,
    -178.1299480948));
#134 = CARTESIAN_POINT('',(59.032294314765,0.,-178.1299480948));
#135 = CARTESIAN_POINT('',(7.22937102789E-15,-18.74275344493,
    -178.1299480948));
#136 = CARTESIAN_POINT('',(7.22937102789E-15,0.,-178.1299480948));
#137 = CARTESIAN_POINT('',(-59.03229431476,-18.74275344493,
    -178.1299480948));
#138 = CARTESIAN_POINT('',(-59.03229431476,0.,-178.1299480948));
#139 = CARTESIAN_POINT('',(-59.03229431476,-18.74275344493,-119.09765378
    ));
#140 = CARTESIAN_POINT('',(-59.03229431476,0.,-119.09765378));
#141 = ADVANCED_FACE('',(#142),#164,.T.);
#142 = FACE_BOUND('',#143,.T.);
#143 = EDGE_LOOP('',(#144,#151,#158,#163));
#144 = ORIENTED_EDGE('',*,*,#145,.F.);
#145 = EDGE_CURVE('',#146,#106,#148,.T.);
#146 = VERTEX_POINT('',#147);
#147 = CARTESIAN_POINT('',(59.032294314765,0.,0.));
#148 = B_SPLINE_CURVE_WITH_KNOTS('',1,(#149,#150),.UNSPECIFIED.,.F.,.F.,
  (2,2),(0.,80.7),.PIECEWISE_BEZIER_KNOTS.);
#149 = CARTESIAN_POINT('',(59.032294314765,0.,0.));
#150 = CARTESIAN_POINT('',(59.032294314765,0.,-119.09765378));
#151 = ORIENTED_EDGE('',*,*,#152,.F.);
#152 = EDGE_CURVE('',#153,#146,#155,.T.);
#153 = VERTEX_POINT('',#154);
#154 = CARTESIAN_POINT('',(59.032294314765,-18.74275344493,0.));
#155 = B_SPLINE_CURVE_WITH_KNOTS('',1,(#156,#157),.UNSPECIFIED.,.F.,.F.,
  (2,2),(0.,12.7),.PIECEWISE_BEZIER_KNOTS.);
#156 = CARTESIAN_POINT('',(59.032294314765,-18.74275344493,0.));
#157 = CARTESIAN_POINT('',(59.032294314765,0.,0.));
#158 = ORIENTED_EDGE('',*,*,#159,.T.);
#159 = EDGE_CURVE('',#153,#116,#160,.T.);
#160 = B_SPLINE_CURVE_WITH_KNOTS('',1,(#161,#162),.UNSPECIFIED.,.F.,.F.,
  (2,2),(0.,80.7),.PIECEWISE_BEZIER_KNOTS.);
#161 = CARTESIAN_POINT('',(59.032294314765,-18.74275344493,0.));
#162 = CARTESIAN_POINT('',(59.032294314765,-18.74275344493,-119.09765378
    ));
#163 = ORIENTED_EDGE('',*,*,#115,.T.);
#164 = B_SPLINE_SURFACE_WITH_KNOTS('',1,1,(
    (#165,#166)
    ,(#167,#168
    )),.UNSPECIFIED.,.F.,.F.,.F.,(2,2),(2,2),(0.,80.7),(0.,12.7),
  .PIECEWISE_BEZIER_KNOTS.);
#165 = CARTESIAN_POINT('',(59.032294314765,-18.74275344493,0.));
#166 = CARTESIAN_POINT('',(59.032294314765,0.,0.));
#167 = CARTESIAN_POINT('',(59.032294314765,-18.74275344493,-119.09765378
    ));
#168 = CARTESIAN_POINT('',(59.032294314765,0.,-119.09765378));
#169 = ADVANCED_FACE('',(#170),#184,.T.);
#170 = FACE_BOUND('',#171,.T.);
#171 = EDGE_LOOP('',(#172,#177,#178,#183));
#172 = ORIENTED_EDGE('',*,*,#173,.F.);
#173 = EDGE_CURVE('',#72,#146,#174,.T.);
#174 = B_SPLINE_CURVE_WITH_KNOTS('',1,(#175,#176),.UNSPECIFIED.,.F.,.F.,
  (2,2),(0.,80.),.PIECEWISE_BEZIER_KNOTS.);
#175 = CARTESIAN_POINT('',(-59.03229431476,0.,0.));
#176 = CARTESIAN_POINT('',(59.032294314765,0.,0.));
#177 = ORIENTED_EDGE('',*,*,#92,.F.);
#178 = ORIENTED_EDGE('',*,*,#179,.T.);
#179 = EDGE_CURVE('',#86,#153,#180,.T.);
#180 = B_SPLINE_CURVE_WITH_KNOTS('',1,(#181,#182),.UNSPECIFIED.,.F.,.F.,
  (2,2),(0.,80.),.PIECEWISE_BEZIER_KNOTS.);
#181 = CARTESIAN_POINT('',(-59.03229431476,-18.74275344493,0.));
#182 = CARTESIAN_POINT('',(59.032294314765,-18.74275344493,0.));
#183 = ORIENTED_EDGE('',*,*,#152,.T.);
#184 = B_SPLINE_SURFACE_WITH_KNOTS('',1,1,(
    (#185,#186)
    ,(#187,#188
    )),.UNSPECIFIED.,.F.,.F.,.F.,(2,2),(2,2),(0.,80.),(0.,12.7),
  .PIECEWISE_BEZIER_KNOTS.);
#185 = CARTESIAN_POINT('',(-59.03229431476,-18.74275344493,0.));
#186 = CARTESIAN_POINT('',(-59.03229431476,0.,0.));
#187 = CARTESIAN_POINT('',(59.032294314765,-18.74275344493,0.));
#188 = CARTESIAN_POINT('',(59.032294314765,0.,0.));
#189 = ADVANCED_FACE('',(#190,#201),#207,.F.);
#190 = FACE_BOUND('',#191,.T.);
#191 = EDGE_LOOP('',(#192,#200));
#192 = ORIENTED_EDGE('',*,*,#193,.T.);
#193 = EDGE_CURVE('',#22,#41,#194,.T.);
#194 = ( BOUNDED_CURVE() B_SPLINE_CURVE(2,(#195,#196,#197,#198,#199),
.UNSPECIFIED.,.F.,.F.) B_SPLINE_CURVE_WITH_KNOTS((3,2,3),(0.,
1.570796326795,3.14159265359),.PIECEWISE_BEZIER_KNOTS.) CURVE() 
GEOMETRIC_REPRESENTATION_ITEM() RATIONAL_B_SPLINE_CURVE((1.,
0.707106781187,1.,0.707106781187,1.)) REPRESENTATION_ITEM('') );
#195 = CARTESIAN_POINT('',(0.,-18.74275344493,-85.89198822798));
#196 = CARTESIAN_POINT('',(33.205665552055,-18.74275344493,
    -85.89198822798));
#197 = CARTESIAN_POINT('',(33.205665552055,-18.74275344493,-119.09765378
    ));
#198 = CARTESIAN_POINT('',(33.205665552055,-18.74275344493,
    -152.303319332));
#199 = CARTESIAN_POINT('',(4.066521203188E-15,-18.74275344493,
    -152.303319332));
#200 = ORIENTED_EDGE('',*,*,#47,.T.);
#201 = FACE_BOUND('',#202,.T.);
#202 = EDGE_LOOP('',(#203,#204,#205,#206));
#203 = ORIENTED_EDGE('',*,*,#85,.F.);
#204 = ORIENTED_EDGE('',*,*,#122,.F.);
#205 = ORIENTED_EDGE('',*,*,#159,.F.);
#206 = ORIENTED_EDGE('',*,*,#179,.F.);
#207 = B_SPLINE_SURFACE_WITH_KNOTS('',1,1,(
    (#208,#209)
    ,(#210,#211
    )),.UNSPECIFIED.,.F.,.F.,.F.,(2,2),(2,2),(-40.,80.7),(-40.,40.),
  .PIECEWISE_BEZIER_KNOTS.);
#208 = CARTESIAN_POINT('',(-59.03229431476,-18.74275344493,
    -178.1299480948));
#209 = CARTESIAN_POINT('',(59.032294314765,-18.74275344493,
    -178.1299480948));
#210 = CARTESIAN_POINT('',(-59.03229431476,-18.74275344493,0.));
#211 = CARTESIAN_POINT('',(59.032294314765,-18.74275344493,0.));
#212 = ADVANCED_FACE('',(#213,#224),#230,.T.);
#213 = FACE_BOUND('',#214,.T.);
#214 = EDGE_LOOP('',(#215,#223));
#215 = ORIENTED_EDGE('',*,*,#216,.F.);
#216 = EDGE_CURVE('',#24,#31,#217,.T.);
#217 = ( BOUNDED_CURVE() B_SPLINE_CURVE(2,(#218,#219,#220,#221,#222),
.UNSPECIFIED.,.F.,.F.) B_SPLINE_CURVE_WITH_KNOTS((3,2,3),(0.,
1.570796326795,3.14159265359),.PIECEWISE_BEZIER_KNOTS.) CURVE() 
GEOMETRIC_REPRESENTATION_ITEM() RATIONAL_B_SPLINE_CURVE((1.,
0.707106781187,1.,0.707106781187,1.)) REPRESENTATION_ITEM('') );
#218 = CARTESIAN_POINT('',(0.,0.,-85.89198822798));
#219 = CARTESIAN_POINT('',(33.205665552055,0.,-85.89198822798));
#220 = CARTESIAN_POINT('',(33.205665552055,0.,-119.09765378));
#221 = CARTESIAN_POINT('',(33.205665552055,0.,-152.303319332));
#222 = CARTESIAN_POINT('',(4.066521203188E-15,0.,-152.303319332));
#223 = ORIENTED_EDGE('',*,*,#30,.F.);
#224 = FACE_BOUND('',#225,.T.);
#225 = EDGE_LOOP('',(#226,#227,#228,#229));
#226 = ORIENTED_EDGE('',*,*,#69,.T.);
#227 = ORIENTED_EDGE('',*,*,#173,.T.);
#228 = ORIENTED_EDGE('',*,*,#145,.T.);
#229 = ORIENTED_EDGE('',*,*,#105,.T.);
#230 = B_SPLINE_SURFACE_WITH_KNOTS('',1,1,(
    (#231,#232)
    ,(#233,#234
    )),.UNSPECIFIED.,.F.,.F.,.F.,(2,2),(2,2),(-40.,80.7),(-40.,40.),
  .PIECEWISE_BEZIER_KNOTS.);
#231 = CARTESIAN_POINT('',(-59.03229431476,0.,-178.1299480948));
#232 = CARTESIAN_POINT('',(59.032294314765,0.,-178.1299480948));
#233 = CARTESIAN_POINT('',(-59.03229431476,0.,0.));
#234 = CARTESIAN_POINT('',(59.032294314765,0.,0.));
#235 = ADVANCED_FACE('',(#236),#242,.F.);
#236 = FACE_BOUND('',#237,.F.);
#237 = EDGE_LOOP('',(#238,#239,#240,#241));
#238 = ORIENTED_EDGE('',*,*,#216,.F.);
#239 = ORIENTED_EDGE('',*,*,#21,.F.);
#240 = ORIENTED_EDGE('',*,*,#193,.T.);
#241 = ORIENTED_EDGE('',*,*,#40,.T.);
#242 = ( BOUNDED_SURFACE() B_SPLINE_SURFACE(2,1,(
    (#243,#244)
    ,(#245,#246)
    ,(#247,#248)
    ,(#249,#250)
,(#251,#252
    )),.UNSPECIFIED.,.F.,.F.,.F.) B_SPLINE_SURFACE_WITH_KNOTS((3,2,3),(2
    ,2),(0.,1.570796326795,3.14159265359),(0.,12.7),
.PIECEWISE_BEZIER_KNOTS.) GEOMETRIC_REPRESENTATION_ITEM() 
RATIONAL_B_SPLINE_SURFACE((
    (1.,1.)
    ,(0.707106781187,0.707106781187)
    ,(1.,1.)
    ,(0.707106781187,0.707106781187)
,(1.,1.))) REPRESENTATION_ITEM('') SURFACE() );
#243 = CARTESIAN_POINT('',(0.,-18.74275344493,-85.89198822798));
#244 = CARTESIAN_POINT('',(0.,0.,-85.89198822798));
#245 = CARTESIAN_POINT('',(33.205665552055,-18.74275344493,
    -85.89198822798));
#246 = CARTESIAN_POINT('',(33.205665552055,0.,-85.89198822798));
#247 = CARTESIAN_POINT('',(33.205665552055,-18.74275344493,-119.09765378
    ));
#248 = CARTESIAN_POINT('',(33.205665552055,0.,-119.09765378));
#249 = CARTESIAN_POINT('',(33.205665552055,-18.74275344493,
    -152.303319332));
#250 = CARTESIAN_POINT('',(33.205665552055,0.,-152.303319332));
#251 = CARTESIAN_POINT('',(4.066521203188E-15,-18.74275344493,
    -152.303319332));
#252 = CARTESIAN_POINT('',(4.066521203188E-15,0.,-152.303319332));
#253 = ( GEOMETRIC_REPRESENTATION_CONTEXT(3) 
GLOBAL_UNCERTAINTY_ASSIGNED_CONTEXT((#257)) GLOBAL_UNIT_ASSIGNED_CONTEXT
((#254,#255,#256)) REPRESENTATION_CONTEXT('Context #1',
  '3D Context with UNIT and UNCERTAINTY') );
#254 = ( LENGTH_UNIT() NAMED_UNIT(*) SI_UNIT(.MILLI.,.METRE.) );
#255 = ( NAMED_UNIT(*) PLANE_ANGLE_UNIT() SI_UNIT($,.RADIAN.) );
#256 = ( NAMED_UNIT(*) SI_UNIT($,.STERADIAN.) SOLID_ANGLE_UNIT() );
#257 = UNCERTAINTY_MEASURE_WITH_UNIT(LENGTH_MEASURE(2.E-07),#254,
  'distance_accuracy_value','confusion accuracy');
#258 = PRODUCT_RELATED_PRODUCT_CATEGORY('part',$,(#7));
ENDSEC;
END-ISO-10303-21;
