ISO-10303-21;
HEADER;
FILE_DESCRIPTION(('FreeCAD Model'),'2;1');
FILE_NAME('Open CASCADE Shape Model','2025-05-09T11:13:35',('FreeCAD'),(
    'FreeCAD'),'Open CASCADE STEP processor 7.6','FreeCAD','Unknown');
FILE_SCHEMA(('AUTOMOTIVE_DESIGN { 1 0 10303 214 1 1 1 1 }'));
ENDSEC;
DATA;
#1 = APPLICATION_PROTOCOL_DEFINITION('international standard',
  'automotive_design',2000,#2);
#2 = APPLICATION_CONTEXT(
  'core data for automotive mechanical design processes');
#3 = SHAPE_DEFINITION_REPRESENTATION(#4,#10);
#4 = PRODUCT_DEFINITION_SHAPE('','',#5);
#5 = PRODUCT_DEFINITION('design','',#6,#9);
#6 = PRODUCT_DEFINITION_FORMATION('','',#7);
#7 = PRODUCT('Open CASCADE STEP translator 7.6 1',
  'Open CASCADE STEP translator 7.6 1','',(#8));
#8 = PRODUCT_CONTEXT('',#2,'mechanical');
#9 = PRODUCT_DEFINITION_CONTEXT('part definition',#2,'design');
#10 = ADVANCED_BREP_SHAPE_REPRESENTATION('',(#11,#15),#345);
#11 = AXIS2_PLACEMENT_3D('',#12,#13,#14);
#12 = CARTESIAN_POINT('',(0.,0.,0.));
#13 = DIRECTION('',(0.,0.,1.));
#14 = DIRECTION('',(1.,0.,-0.));
#15 = MANIFOLD_SOLID_BREP('',#16);
#16 = CLOSED_SHELL('',(#17,#59,#101,#161,#221,#253,#283,#315));
#17 = ADVANCED_FACE('',(#18,#32),#54,.T.);
#18 = FACE_BOUND('',#19,.T.);
#19 = EDGE_LOOP('',(#20));
#20 = ORIENTED_EDGE('',*,*,#21,.T.);
#21 = EDGE_CURVE('',#22,#22,#24,.T.);
#22 = VERTEX_POINT('',#23);
#23 = CARTESIAN_POINT('',(4.111407280196,0.,34.261727334967));
#24 = ( BOUNDED_CURVE() B_SPLINE_CURVE(2,(#25,#26,#27,#28,#29,#30,#31),
.UNSPECIFIED.,.T.,.F.) B_SPLINE_CURVE_WITH_KNOTS((1,2,2,2,2,1),(
    -2.094395102393,0.,2.094395102393,4.188790204786,6.28318530718,
8.377580409573),.UNSPECIFIED.) CURVE() GEOMETRIC_REPRESENTATION_ITEM() 
RATIONAL_B_SPLINE_CURVE((1.,0.5,1.,0.5,1.,0.5,1.)) REPRESENTATION_ITEM(
  '') );
#25 = CARTESIAN_POINT('',(4.111407280196,0.,34.261727334967));
#26 = CARTESIAN_POINT('',(4.111407280196,7.121166299908,34.261727334967)
  );
#27 = CARTESIAN_POINT('',(-2.055703640098,3.560583149954,34.261727334967
    ));
#28 = CARTESIAN_POINT('',(-8.222814560392,1.007004353137E-15,
    34.261727334967));
#29 = CARTESIAN_POINT('',(-2.055703640098,-3.560583149954,
    34.261727334967));
#30 = CARTESIAN_POINT('',(4.111407280196,-7.121166299908,34.261727334967
    ));
#31 = CARTESIAN_POINT('',(4.111407280196,0.,34.261727334967));
#32 = FACE_BOUND('',#33,.T.);
#33 = EDGE_LOOP('',(#34,#46));
#34 = ORIENTED_EDGE('',*,*,#35,.F.);
#35 = EDGE_CURVE('',#36,#38,#40,.T.);
#36 = VERTEX_POINT('',#37);
#37 = CARTESIAN_POINT('',(-2.355493754279,-2.884647886589E-16,
    34.261727334967));
#38 = VERTEX_POINT('',#39);
#39 = CARTESIAN_POINT('',(2.355493754279,0.,34.261727334967));
#40 = ( BOUNDED_CURVE() B_SPLINE_CURVE(2,(#41,#42,#43,#44,#45),
.UNSPECIFIED.,.F.,.F.) B_SPLINE_CURVE_WITH_KNOTS((3,2,3),(3.14159265359,
4.712388980385,6.28318530718),.PIECEWISE_BEZIER_KNOTS.) CURVE() 
GEOMETRIC_REPRESENTATION_ITEM() RATIONAL_B_SPLINE_CURVE((1.,
0.707106781187,1.,0.707106781187,1.)) REPRESENTATION_ITEM('') );
#41 = CARTESIAN_POINT('',(-2.355493754279,2.884647886589E-16,
    34.261727334967));
#42 = CARTESIAN_POINT('',(-2.355493754279,-2.355493754279,
    34.261727334967));
#43 = CARTESIAN_POINT('',(-4.326971829884E-16,-2.355493754279,
    34.261727334967));
#44 = CARTESIAN_POINT('',(2.355493754279,-2.355493754279,34.261727334967
    ));
#45 = CARTESIAN_POINT('',(2.355493754279,-5.769295773179E-16,
    34.261727334967));
#46 = ORIENTED_EDGE('',*,*,#47,.F.);
#47 = EDGE_CURVE('',#38,#36,#48,.T.);
#48 = ( BOUNDED_CURVE() B_SPLINE_CURVE(2,(#49,#50,#51,#52,#53),
.UNSPECIFIED.,.F.,.F.) B_SPLINE_CURVE_WITH_KNOTS((3,2,3),(0.,
1.570796326795,3.14159265359),.PIECEWISE_BEZIER_KNOTS.) CURVE() 
GEOMETRIC_REPRESENTATION_ITEM() RATIONAL_B_SPLINE_CURVE((1.,
0.707106781187,1.,0.707106781187,1.)) REPRESENTATION_ITEM('') );
#49 = CARTESIAN_POINT('',(2.355493754279,0.,34.261727334967));
#50 = CARTESIAN_POINT('',(2.355493754279,2.355493754279,34.261727334967)
  );
#51 = CARTESIAN_POINT('',(1.442323943295E-16,2.355493754279,
    34.261727334967));
#52 = CARTESIAN_POINT('',(-2.355493754279,2.355493754279,34.261727334967
    ));
#53 = CARTESIAN_POINT('',(-2.355493754279,2.884647886589E-16,
    34.261727334967));
#54 = B_SPLINE_SURFACE_WITH_KNOTS('',1,1,(
    (#55,#56)
    ,(#57,#58
    )),.UNSPECIFIED.,.F.,.F.,.F.,(2,2),(2,2),(-4.8,4.8),(-4.8,4.8),
  .PIECEWISE_BEZIER_KNOTS.);
#55 = CARTESIAN_POINT('',(-4.111407280196,-4.111407280196,
    34.261727334967));
#56 = CARTESIAN_POINT('',(-4.111407280196,4.111407280196,34.261727334967
    ));
#57 = CARTESIAN_POINT('',(4.111407280196,-4.111407280196,34.261727334967
    ));
#58 = CARTESIAN_POINT('',(4.111407280196,4.111407280196,34.261727334967)
  );
#59 = ADVANCED_FACE('',(#60,#82),#96,.F.);
#60 = FACE_BOUND('',#61,.T.);
#61 = EDGE_LOOP('',(#62,#74));
#62 = ORIENTED_EDGE('',*,*,#63,.F.);
#63 = EDGE_CURVE('',#64,#66,#68,.T.);
#64 = VERTEX_POINT('',#65);
#65 = CARTESIAN_POINT('',(-4.111407280196,-5.035021765683E-16,
    1.18869245471E-16));
#66 = VERTEX_POINT('',#67);
#67 = CARTESIAN_POINT('',(4.111407280196,0.,0.));
#68 = ( BOUNDED_CURVE() B_SPLINE_CURVE(2,(#69,#70,#71,#72,#73),
.UNSPECIFIED.,.F.,.F.) B_SPLINE_CURVE_WITH_KNOTS((3,2,3),(3.14159265359,
4.712388980385,6.28318530718),.PIECEWISE_BEZIER_KNOTS.) CURVE() 
GEOMETRIC_REPRESENTATION_ITEM() RATIONAL_B_SPLINE_CURVE((1.,
0.707106781187,1.,0.707106781187,1.)) REPRESENTATION_ITEM('') );
#69 = CARTESIAN_POINT('',(-4.111407280196,5.035021765683E-16,0.));
#70 = CARTESIAN_POINT('',(-4.111407280196,-4.111407280196,0.));
#71 = CARTESIAN_POINT('',(-7.552532648525E-16,-4.111407280196,0.));
#72 = CARTESIAN_POINT('',(4.111407280196,-4.111407280196,0.));
#73 = CARTESIAN_POINT('',(4.111407280196,-1.007004353137E-15,0.));
#74 = ORIENTED_EDGE('',*,*,#75,.F.);
#75 = EDGE_CURVE('',#66,#64,#76,.T.);
#76 = ( BOUNDED_CURVE() B_SPLINE_CURVE(2,(#77,#78,#79,#80,#81),
.UNSPECIFIED.,.F.,.F.) B_SPLINE_CURVE_WITH_KNOTS((3,2,3),(0.,
1.570796326795,3.14159265359),.PIECEWISE_BEZIER_KNOTS.) CURVE() 
GEOMETRIC_REPRESENTATION_ITEM() RATIONAL_B_SPLINE_CURVE((1.,
0.707106781187,1.,0.707106781187,1.)) REPRESENTATION_ITEM('') );
#77 = CARTESIAN_POINT('',(4.111407280196,0.,0.));
#78 = CARTESIAN_POINT('',(4.111407280196,4.111407280196,0.));
#79 = CARTESIAN_POINT('',(2.517510882842E-16,4.111407280196,0.));
#80 = CARTESIAN_POINT('',(-4.111407280196,4.111407280196,0.));
#81 = CARTESIAN_POINT('',(-4.111407280196,5.035021765683E-16,0.));
#82 = FACE_BOUND('',#83,.T.);
#83 = EDGE_LOOP('',(#84));
#84 = ORIENTED_EDGE('',*,*,#85,.T.);
#85 = EDGE_CURVE('',#86,#86,#88,.T.);
#86 = VERTEX_POINT('',#87);
#87 = CARTESIAN_POINT('',(2.355493754279,0.,0.));
#88 = ( BOUNDED_CURVE() B_SPLINE_CURVE(2,(#89,#90,#91,#92,#93,#94,#95),
.UNSPECIFIED.,.T.,.F.) B_SPLINE_CURVE_WITH_KNOTS((1,2,2,2,2,1),(
    -2.094395102393,0.,2.094395102393,4.188790204786,6.28318530718,
8.377580409573),.UNSPECIFIED.) CURVE() GEOMETRIC_REPRESENTATION_ITEM() 
RATIONAL_B_SPLINE_CURVE((1.,0.5,1.,0.5,1.,0.5,1.)) REPRESENTATION_ITEM(
  '') );
#89 = CARTESIAN_POINT('',(2.355493754279,0.,0.));
#90 = CARTESIAN_POINT('',(2.355493754279,4.079834859322,0.));
#91 = CARTESIAN_POINT('',(-1.177746877139,2.039917429661,0.));
#92 = CARTESIAN_POINT('',(-4.710987508558,5.769295773179E-16,0.));
#93 = CARTESIAN_POINT('',(-1.177746877139,-2.039917429661,0.));
#94 = CARTESIAN_POINT('',(2.355493754279,-4.079834859322,0.));
#95 = CARTESIAN_POINT('',(2.355493754279,0.,0.));
#96 = B_SPLINE_SURFACE_WITH_KNOTS('',1,1,(
    (#97,#98)
    ,(#99,#100
    )),.UNSPECIFIED.,.F.,.F.,.F.,(2,2),(2,2),(-4.8,4.8),(-4.8,4.8),
  .PIECEWISE_BEZIER_KNOTS.);
#97 = CARTESIAN_POINT('',(-4.111407280196,-4.111407280196,0.));
#98 = CARTESIAN_POINT('',(-4.111407280196,4.111407280196,0.));
#99 = CARTESIAN_POINT('',(4.111407280196,-4.111407280196,0.));
#100 = CARTESIAN_POINT('',(4.111407280196,4.111407280196,0.));
#101 = ADVANCED_FACE('',(#102),#142,.T.);
#102 = FACE_BOUND('',#103,.T.);
#103 = EDGE_LOOP('',(#104,#116,#124,#131,#141));
#104 = ORIENTED_EDGE('',*,*,#105,.T.);
#105 = EDGE_CURVE('',#106,#108,#110,.T.);
#106 = VERTEX_POINT('',#107);
#107 = CARTESIAN_POINT('',(4.282715916871,0.,0.171308636675));
#108 = VERTEX_POINT('',#109);
#109 = CARTESIAN_POINT('',(-4.282715916871,-5.244814339253E-16,
    0.171308636675));
#110 = ( BOUNDED_CURVE() B_SPLINE_CURVE(2,(#111,#112,#113,#114,#115),
.UNSPECIFIED.,.F.,.F.) B_SPLINE_CURVE_WITH_KNOTS((3,2,3),(0.,
1.570796326795,3.14159265359),.PIECEWISE_BEZIER_KNOTS.) CURVE() 
GEOMETRIC_REPRESENTATION_ITEM() RATIONAL_B_SPLINE_CURVE((1.,
0.707106781187,1.,0.707106781187,1.)) REPRESENTATION_ITEM('') );
#111 = CARTESIAN_POINT('',(4.282715916871,0.,0.171308636675));
#112 = CARTESIAN_POINT('',(4.282715916871,4.282715916871,0.171308636675)
  );
#113 = CARTESIAN_POINT('',(2.622407169627E-16,4.282715916871,
    0.171308636675));
#114 = CARTESIAN_POINT('',(-4.282715916871,4.282715916871,0.171308636675
    ));
#115 = CARTESIAN_POINT('',(-4.282715916871,5.244814339253E-16,
    0.171308636675));
#116 = ORIENTED_EDGE('',*,*,#117,.T.);
#117 = EDGE_CURVE('',#108,#106,#118,.T.);
#118 = ( BOUNDED_CURVE() B_SPLINE_CURVE(2,(#119,#120,#121,#122,#123),
.UNSPECIFIED.,.F.,.F.) B_SPLINE_CURVE_WITH_KNOTS((3,2,3),(3.14159265359,
4.712388980385,6.28318530718),.PIECEWISE_BEZIER_KNOTS.) CURVE() 
GEOMETRIC_REPRESENTATION_ITEM() RATIONAL_B_SPLINE_CURVE((1.,
0.707106781187,1.,0.707106781187,1.)) REPRESENTATION_ITEM('') );
#119 = CARTESIAN_POINT('',(-4.282715916871,5.244814339253E-16,
    0.171308636675));
#120 = CARTESIAN_POINT('',(-4.282715916871,-4.282715916871,
    0.171308636675));
#121 = CARTESIAN_POINT('',(-7.86722150888E-16,-4.282715916871,
    0.171308636675));
#122 = CARTESIAN_POINT('',(4.282715916871,-4.282715916871,0.171308636675
    ));
#123 = CARTESIAN_POINT('',(4.282715916871,-1.048962867851E-15,
    0.171308636675));
#124 = ORIENTED_EDGE('',*,*,#125,.T.);
#125 = EDGE_CURVE('',#106,#126,#128,.T.);
#126 = VERTEX_POINT('',#127);
#127 = CARTESIAN_POINT('',(4.282715916871,0.,34.090418698292));
#128 = B_SPLINE_CURVE_WITH_KNOTS('',1,(#129,#130),.UNSPECIFIED.,.F.,.F.,
  (2,2),(-39.8,-0.2),.PIECEWISE_BEZIER_KNOTS.);
#129 = CARTESIAN_POINT('',(4.282715916871,-5.244814339253E-16,
    0.171308636675));
#130 = CARTESIAN_POINT('',(4.282715916871,-5.244814339253E-16,
    34.090418698292));
#131 = ORIENTED_EDGE('',*,*,#132,.F.);
#132 = EDGE_CURVE('',#126,#126,#133,.T.);
#133 = ( BOUNDED_CURVE() B_SPLINE_CURVE(2,(#134,#135,#136,#137,#138,#139
,#140),.UNSPECIFIED.,.T.,.F.) B_SPLINE_CURVE_WITH_KNOTS((1,2,2,2,2,1),(
    -2.094395102393,0.,2.094395102393,4.188790204786,6.28318530718,
8.377580409573),.UNSPECIFIED.) CURVE() GEOMETRIC_REPRESENTATION_ITEM() 
RATIONAL_B_SPLINE_CURVE((1.,0.5,1.,0.5,1.,0.5,1.)) REPRESENTATION_ITEM(
  '') );
#134 = CARTESIAN_POINT('',(4.282715916871,0.,34.090418698292));
#135 = CARTESIAN_POINT('',(4.282715916871,7.417881562404,34.090418698292
    ));
#136 = CARTESIAN_POINT('',(-2.141357958435,3.708940781202,
    34.090418698292));
#137 = CARTESIAN_POINT('',(-8.565431833742,1.048962867851E-15,
    34.090418698292));
#138 = CARTESIAN_POINT('',(-2.141357958435,-3.708940781202,
    34.090418698292));
#139 = CARTESIAN_POINT('',(4.282715916871,-7.417881562404,
    34.090418698292));
#140 = CARTESIAN_POINT('',(4.282715916871,0.,34.090418698292));
#141 = ORIENTED_EDGE('',*,*,#125,.F.);
#142 = ( BOUNDED_SURFACE() B_SPLINE_SURFACE(2,1,(
    (#143,#144)
    ,(#145,#146)
    ,(#147,#148)
    ,(#149,#150)
    ,(#151,#152)
    ,(#153,#154)
    ,(#155,#156)
    ,(#157,#158)
,(#159,#160
    )),.UNSPECIFIED.,.T.,.F.,.F.) B_SPLINE_SURFACE_WITH_KNOTS((3,2,2,2,3
    ),(2,2),(3.14159265359,4.188790204786,6.28318530718,8.377580409573,
    9.424777960769),(0.2,39.8),.UNSPECIFIED.) 
GEOMETRIC_REPRESENTATION_ITEM() RATIONAL_B_SPLINE_SURFACE((
    (0.75,0.75)
    ,(0.75,0.75)
    ,(1.,1.)
    ,(0.5,0.5)
    ,(1.,1.)
    ,(0.5,0.5)
    ,(1.,1.)
    ,(0.75,0.75)
,(0.75,0.75))) REPRESENTATION_ITEM('') SURFACE() );
#143 = CARTESIAN_POINT('',(4.282715916871,0.,34.090418698292));
#144 = CARTESIAN_POINT('',(4.282715916871,0.,0.171308636675));
#145 = CARTESIAN_POINT('',(4.282715916871,-2.472627187468,
    34.090418698292));
#146 = CARTESIAN_POINT('',(4.282715916871,-2.472627187468,0.171308636675
    ));
#147 = CARTESIAN_POINT('',(2.141357958435,-3.708940781202,
    34.090418698292));
#148 = CARTESIAN_POINT('',(2.141357958435,-3.708940781202,0.171308636675
    ));
#149 = CARTESIAN_POINT('',(-4.282715916871,-7.417881562404,
    34.090418698292));
#150 = CARTESIAN_POINT('',(-4.282715916871,-7.417881562404,
    0.171308636675));
#151 = CARTESIAN_POINT('',(-4.282715916871,0.,34.090418698292));
#152 = CARTESIAN_POINT('',(-4.282715916871,0.,0.171308636675));
#153 = CARTESIAN_POINT('',(-4.282715916871,7.417881562404,
    34.090418698292));
#154 = CARTESIAN_POINT('',(-4.282715916871,7.417881562404,0.171308636675
    ));
#155 = CARTESIAN_POINT('',(2.141357958435,3.708940781202,34.090418698292
    ));
#156 = CARTESIAN_POINT('',(2.141357958435,3.708940781202,0.171308636675)
  );
#157 = CARTESIAN_POINT('',(4.282715916871,2.472627187468,34.090418698292
    ));
#158 = CARTESIAN_POINT('',(4.282715916871,2.472627187468,0.171308636675)
  );
#159 = CARTESIAN_POINT('',(4.282715916871,0.,34.090418698292));
#160 = CARTESIAN_POINT('',(4.282715916871,0.,0.171308636675));
#161 = ADVANCED_FACE('',(#162),#202,.F.);
#162 = FACE_BOUND('',#163,.F.);
#163 = EDGE_LOOP('',(#164,#173,#183,#184,#194));
#164 = ORIENTED_EDGE('',*,*,#165,.T.);
#165 = EDGE_CURVE('',#166,#168,#170,.T.);
#166 = VERTEX_POINT('',#167);
#167 = CARTESIAN_POINT('',(2.184185117604,0.,34.090418698292));
#168 = VERTEX_POINT('',#169);
#169 = CARTESIAN_POINT('',(2.184185117604,0.,0.171308636675));
#170 = B_SPLINE_CURVE_WITH_KNOTS('',1,(#171,#172),.UNSPECIFIED.,.F.,.F.,
  (2,2),(0.2,39.8),.PIECEWISE_BEZIER_KNOTS.);
#171 = CARTESIAN_POINT('',(2.184185117604,-2.674855313019E-16,
    34.090418698292));
#172 = CARTESIAN_POINT('',(2.184185117604,-2.674855313019E-16,
    0.171308636675));
#173 = ORIENTED_EDGE('',*,*,#174,.T.);
#174 = EDGE_CURVE('',#168,#168,#175,.T.);
#175 = ( BOUNDED_CURVE() B_SPLINE_CURVE(2,(#176,#177,#178,#179,#180,#181
,#182),.UNSPECIFIED.,.T.,.F.) B_SPLINE_CURVE_WITH_KNOTS((1,2,2,2,2,1),(
    -2.094395102393,0.,2.094395102393,4.188790204786,6.28318530718,
8.377580409573),.UNSPECIFIED.) CURVE() GEOMETRIC_REPRESENTATION_ITEM() 
RATIONAL_B_SPLINE_CURVE((1.,0.5,1.,0.5,1.,0.5,1.)) REPRESENTATION_ITEM(
  '') );
#176 = CARTESIAN_POINT('',(2.184185117604,0.,0.171308636675));
#177 = CARTESIAN_POINT('',(2.184185117604,3.783119596826,0.171308636675)
  );
#178 = CARTESIAN_POINT('',(-1.092092558802,1.891559798413,0.171308636675
    ));
#179 = CARTESIAN_POINT('',(-4.368370235208,5.349710626038E-16,
    0.171308636675));
#180 = CARTESIAN_POINT('',(-1.092092558802,-1.891559798413,
    0.171308636675));
#181 = CARTESIAN_POINT('',(2.184185117604,-3.783119596826,0.171308636675
    ));
#182 = CARTESIAN_POINT('',(2.184185117604,0.,0.171308636675));
#183 = ORIENTED_EDGE('',*,*,#165,.F.);
#184 = ORIENTED_EDGE('',*,*,#185,.F.);
#185 = EDGE_CURVE('',#186,#166,#188,.T.);
#186 = VERTEX_POINT('',#187);
#187 = CARTESIAN_POINT('',(-2.184185117604,-2.674855313019E-16,
    34.090418698292));
#188 = ( BOUNDED_CURVE() B_SPLINE_CURVE(2,(#189,#190,#191,#192,#193),
.UNSPECIFIED.,.F.,.F.) B_SPLINE_CURVE_WITH_KNOTS((3,2,3),(3.14159265359,
4.712388980385,6.28318530718),.PIECEWISE_BEZIER_KNOTS.) CURVE() 
GEOMETRIC_REPRESENTATION_ITEM() RATIONAL_B_SPLINE_CURVE((1.,
0.707106781187,1.,0.707106781187,1.)) REPRESENTATION_ITEM('') );
#189 = CARTESIAN_POINT('',(-2.184185117604,2.674855313019E-16,
    34.090418698292));
#190 = CARTESIAN_POINT('',(-2.184185117604,-2.184185117604,
    34.090418698292));
#191 = CARTESIAN_POINT('',(-4.012282969529E-16,-2.184185117604,
    34.090418698292));
#192 = CARTESIAN_POINT('',(2.184185117604,-2.184185117604,
    34.090418698292));
#193 = CARTESIAN_POINT('',(2.184185117604,-5.349710626038E-16,
    34.090418698292));
#194 = ORIENTED_EDGE('',*,*,#195,.F.);
#195 = EDGE_CURVE('',#166,#186,#196,.T.);
#196 = ( BOUNDED_CURVE() B_SPLINE_CURVE(2,(#197,#198,#199,#200,#201),
.UNSPECIFIED.,.F.,.F.) B_SPLINE_CURVE_WITH_KNOTS((3,2,3),(0.,
1.570796326795,3.14159265359),.PIECEWISE_BEZIER_KNOTS.) CURVE() 
GEOMETRIC_REPRESENTATION_ITEM() RATIONAL_B_SPLINE_CURVE((1.,
0.707106781187,1.,0.707106781187,1.)) REPRESENTATION_ITEM('') );
#197 = CARTESIAN_POINT('',(2.184185117604,0.,34.090418698292));
#198 = CARTESIAN_POINT('',(2.184185117604,2.184185117604,34.090418698292
    ));
#199 = CARTESIAN_POINT('',(1.33742765651E-16,2.184185117604,
    34.090418698292));
#200 = CARTESIAN_POINT('',(-2.184185117604,2.184185117604,
    34.090418698292));
#201 = CARTESIAN_POINT('',(-2.184185117604,2.674855313019E-16,
    34.090418698292));
#202 = ( BOUNDED_SURFACE() B_SPLINE_SURFACE(2,1,(
    (#203,#204)
    ,(#205,#206)
    ,(#207,#208)
    ,(#209,#210)
    ,(#211,#212)
    ,(#213,#214)
    ,(#215,#216)
    ,(#217,#218)
,(#219,#220
    )),.UNSPECIFIED.,.T.,.F.,.F.) B_SPLINE_SURFACE_WITH_KNOTS((3,2,2,2,3
    ),(2,2),(-3.14159265359,-2.094395102393,0.,2.094395102393,
    3.14159265359),(0.2,39.8),.UNSPECIFIED.) 
GEOMETRIC_REPRESENTATION_ITEM() RATIONAL_B_SPLINE_SURFACE((
    (0.75,0.75)
    ,(0.75,0.75)
    ,(1.,1.)
    ,(0.5,0.5)
    ,(1.,1.)
    ,(0.5,0.5)
    ,(1.,1.)
    ,(0.75,0.75)
,(0.75,0.75))) REPRESENTATION_ITEM('') SURFACE() );
#203 = CARTESIAN_POINT('',(2.184185117604,0.,34.090418698292));
#204 = CARTESIAN_POINT('',(2.184185117604,0.,0.171308636675));
#205 = CARTESIAN_POINT('',(2.184185117604,-1.261039865609,
    34.090418698292));
#206 = CARTESIAN_POINT('',(2.184185117604,-1.261039865609,0.171308636675
    ));
#207 = CARTESIAN_POINT('',(1.092092558802,-1.891559798413,
    34.090418698292));
#208 = CARTESIAN_POINT('',(1.092092558802,-1.891559798413,0.171308636675
    ));
#209 = CARTESIAN_POINT('',(-2.184185117604,-3.783119596826,
    34.090418698292));
#210 = CARTESIAN_POINT('',(-2.184185117604,-3.783119596826,
    0.171308636675));
#211 = CARTESIAN_POINT('',(-2.184185117604,0.,34.090418698292));
#212 = CARTESIAN_POINT('',(-2.184185117604,0.,0.171308636675));
#213 = CARTESIAN_POINT('',(-2.184185117604,3.783119596826,
    34.090418698292));
#214 = CARTESIAN_POINT('',(-2.184185117604,3.783119596826,0.171308636675
    ));
#215 = CARTESIAN_POINT('',(1.092092558802,1.891559798413,34.090418698292
    ));
#216 = CARTESIAN_POINT('',(1.092092558802,1.891559798413,0.171308636675)
  );
#217 = CARTESIAN_POINT('',(2.184185117604,1.261039865609,34.090418698292
    ));
#218 = CARTESIAN_POINT('',(2.184185117604,1.261039865609,0.171308636675)
  );
#219 = CARTESIAN_POINT('',(2.184185117604,0.,34.090418698292));
#220 = CARTESIAN_POINT('',(2.184185117604,0.,0.171308636675));
#221 = ADVANCED_FACE('',(#222),#234,.T.);
#222 = FACE_BOUND('',#223,.T.);
#223 = EDGE_LOOP('',(#224,#225,#226,#231,#232,#233));
#224 = ORIENTED_EDGE('',*,*,#105,.F.);
#225 = ORIENTED_EDGE('',*,*,#117,.F.);
#226 = ORIENTED_EDGE('',*,*,#227,.T.);
#227 = EDGE_CURVE('',#108,#64,#228,.T.);
#228 = B_SPLINE_CURVE_WITH_KNOTS('',1,(#229,#230),.UNSPECIFIED.,.F.,.F.,
  (2,2),(0.,0.282842712475),.PIECEWISE_BEZIER_KNOTS.);
#229 = CARTESIAN_POINT('',(-4.282715916871,-5.244814339253E-16,
    0.171308636675));
#230 = CARTESIAN_POINT('',(-4.111407280196,-5.035021765683E-16,
    2.187194116666E-15));
#231 = ORIENTED_EDGE('',*,*,#63,.T.);
#232 = ORIENTED_EDGE('',*,*,#75,.T.);
#233 = ORIENTED_EDGE('',*,*,#227,.F.);
#234 = ( BOUNDED_SURFACE() B_SPLINE_SURFACE(2,1,(
    (#235,#236)
    ,(#237,#238)
    ,(#239,#240)
    ,(#241,#242)
    ,(#243,#244)
    ,(#245,#246)
    ,(#247,#248)
    ,(#249,#250)
,(#251,#252
    )),.UNSPECIFIED.,.T.,.F.,.F.) B_SPLINE_SURFACE_WITH_KNOTS((3,2,2,2,3
    ),(2,2),(-3.14159265359,-2.094395102393,0.,2.094395102393,
    3.14159265359),(-0.282842712475,0.),.UNSPECIFIED.) 
GEOMETRIC_REPRESENTATION_ITEM() RATIONAL_B_SPLINE_SURFACE((
    (0.75,0.75)
    ,(0.75,0.75)
    ,(1.,1.)
    ,(0.5,0.5)
    ,(1.,1.)
    ,(0.5,0.5)
    ,(1.,1.)
    ,(0.75,0.75)
,(0.75,0.75))) REPRESENTATION_ITEM('') SURFACE() );
#235 = CARTESIAN_POINT('',(-4.111407280196,0.,2.068324871195E-15));
#236 = CARTESIAN_POINT('',(-4.282715916871,0.,0.171308636675));
#237 = CARTESIAN_POINT('',(-4.111407280196,-2.373722099969,
    2.068324871195E-15));
#238 = CARTESIAN_POINT('',(-4.282715916871,-2.472627187468,
    0.171308636675));
#239 = CARTESIAN_POINT('',(-2.055703640098,-3.560583149954,
    2.068324871195E-15));
#240 = CARTESIAN_POINT('',(-2.141357958435,-3.708940781202,
    0.171308636675));
#241 = CARTESIAN_POINT('',(4.111407280196,-7.121166299908,
    2.068324871195E-15));
#242 = CARTESIAN_POINT('',(4.282715916871,-7.417881562404,0.171308636675
    ));
#243 = CARTESIAN_POINT('',(4.111407280196,0.,2.068324871195E-15));
#244 = CARTESIAN_POINT('',(4.282715916871,0.,0.171308636675));
#245 = CARTESIAN_POINT('',(4.111407280196,7.121166299908,
    2.068324871195E-15));
#246 = CARTESIAN_POINT('',(4.282715916871,7.417881562404,0.171308636675)
  );
#247 = CARTESIAN_POINT('',(-2.055703640098,3.560583149954,
    2.068324871195E-15));
#248 = CARTESIAN_POINT('',(-2.141357958435,3.708940781202,0.171308636675
    ));
#249 = CARTESIAN_POINT('',(-4.111407280196,2.373722099969,
    2.068324871195E-15));
#250 = CARTESIAN_POINT('',(-4.282715916871,2.472627187468,0.171308636675
    ));
#251 = CARTESIAN_POINT('',(-4.111407280196,0.,2.068324871195E-15));
#252 = CARTESIAN_POINT('',(-4.282715916871,0.,0.171308636675));
#253 = ADVANCED_FACE('',(#254),#264,.F.);
#254 = FACE_BOUND('',#255,.F.);
#255 = EDGE_LOOP('',(#256,#261,#262,#263));
#256 = ORIENTED_EDGE('',*,*,#257,.T.);
#257 = EDGE_CURVE('',#168,#86,#258,.T.);
#258 = B_SPLINE_CURVE_WITH_KNOTS('',1,(#259,#260),.UNSPECIFIED.,.F.,.F.,
  (2,2),(-0.282842712475,-2.916348359295E-32),.PIECEWISE_BEZIER_KNOTS.);
#259 = CARTESIAN_POINT('',(2.184185117604,-2.674855313019E-16,
    0.171308636675));
#260 = CARTESIAN_POINT('',(2.355493754279,-2.884647886589E-16,
    1.766337400489E-32));
#261 = ORIENTED_EDGE('',*,*,#85,.T.);
#262 = ORIENTED_EDGE('',*,*,#257,.F.);
#263 = ORIENTED_EDGE('',*,*,#174,.F.);
#264 = ( BOUNDED_SURFACE() B_SPLINE_SURFACE(2,1,(
    (#265,#266)
    ,(#267,#268)
    ,(#269,#270)
    ,(#271,#272)
    ,(#273,#274)
    ,(#275,#276)
    ,(#277,#278)
    ,(#279,#280)
,(#281,#282
    )),.UNSPECIFIED.,.T.,.F.,.F.) B_SPLINE_SURFACE_WITH_KNOTS((3,2,2,2,3
    ),(2,2),(-3.14159265359,-2.094395102393,0.,2.094395102393,
    3.14159265359),(-0.282842712475,1.110223024625E-16),.UNSPECIFIED.) 
GEOMETRIC_REPRESENTATION_ITEM() RATIONAL_B_SPLINE_SURFACE((
    (0.75,0.75)
    ,(0.75,0.75)
    ,(1.,1.)
    ,(0.5,0.5)
    ,(1.,1.)
    ,(0.5,0.5)
    ,(1.,1.)
    ,(0.75,0.75)
,(0.75,0.75))) REPRESENTATION_ITEM('') SURFACE() );
#265 = CARTESIAN_POINT('',(2.184185117604,0.,0.171308636675));
#266 = CARTESIAN_POINT('',(2.355493754279,0.,-6.724259963764E-17));
#267 = CARTESIAN_POINT('',(2.184185117604,-1.261039865609,0.171308636675
    ));
#268 = CARTESIAN_POINT('',(2.355493754279,-1.359944953107,
    -6.724259963764E-17));
#269 = CARTESIAN_POINT('',(1.092092558802,-1.891559798413,0.171308636675
    ));
#270 = CARTESIAN_POINT('',(1.177746877139,-2.039917429661,
    -6.724259963764E-17));
#271 = CARTESIAN_POINT('',(-2.184185117604,-3.783119596826,
    0.171308636675));
#272 = CARTESIAN_POINT('',(-2.355493754279,-4.079834859322,
    -6.724259963764E-17));
#273 = CARTESIAN_POINT('',(-2.184185117604,0.,0.171308636675));
#274 = CARTESIAN_POINT('',(-2.355493754279,0.,-6.724259963764E-17));
#275 = CARTESIAN_POINT('',(-2.184185117604,3.783119596826,0.171308636675
    ));
#276 = CARTESIAN_POINT('',(-2.355493754279,4.079834859322,
    -6.724259963764E-17));
#277 = CARTESIAN_POINT('',(1.092092558802,1.891559798413,0.171308636675)
  );
#278 = CARTESIAN_POINT('',(1.177746877139,2.039917429661,
    -6.724259963764E-17));
#279 = CARTESIAN_POINT('',(2.184185117604,1.261039865609,0.171308636675)
  );
#280 = CARTESIAN_POINT('',(2.355493754279,1.359944953107,
    -6.724259963764E-17));
#281 = CARTESIAN_POINT('',(2.184185117604,0.,0.171308636675));
#282 = CARTESIAN_POINT('',(2.355493754279,0.,-6.724259963764E-17));
#283 = ADVANCED_FACE('',(#284),#296,.F.);
#284 = FACE_BOUND('',#285,.F.);
#285 = EDGE_LOOP('',(#286,#291,#292,#293,#294,#295));
#286 = ORIENTED_EDGE('',*,*,#287,.T.);
#287 = EDGE_CURVE('',#186,#36,#288,.T.);
#288 = B_SPLINE_CURVE_WITH_KNOTS('',1,(#289,#290),.UNSPECIFIED.,.F.,.F.,
  (2,2),(0.,0.282842712475),.PIECEWISE_BEZIER_KNOTS.);
#289 = CARTESIAN_POINT('',(-2.184185117604,-2.674855313019E-16,
    34.090418698292));
#290 = CARTESIAN_POINT('',(-2.355493754279,-2.884647886589E-16,
    34.261727334967));
#291 = ORIENTED_EDGE('',*,*,#47,.F.);
#292 = ORIENTED_EDGE('',*,*,#35,.F.);
#293 = ORIENTED_EDGE('',*,*,#287,.F.);
#294 = ORIENTED_EDGE('',*,*,#185,.T.);
#295 = ORIENTED_EDGE('',*,*,#195,.T.);
#296 = ( BOUNDED_SURFACE() B_SPLINE_SURFACE(2,1,(
    (#297,#298)
    ,(#299,#300)
    ,(#301,#302)
    ,(#303,#304)
    ,(#305,#306)
    ,(#307,#308)
    ,(#309,#310)
    ,(#311,#312)
,(#313,#314
    )),.UNSPECIFIED.,.T.,.F.,.F.) B_SPLINE_SURFACE_WITH_KNOTS((3,2,2,2,3
    ),(2,2),(-3.14159265359,-2.094395102393,0.,2.094395102393,
    3.14159265359),(0.,0.282842712475),.UNSPECIFIED.) 
GEOMETRIC_REPRESENTATION_ITEM() RATIONAL_B_SPLINE_SURFACE((
    (0.75,0.75)
    ,(0.75,0.75)
    ,(1.,1.)
    ,(0.5,0.5)
    ,(1.,1.)
    ,(0.5,0.5)
    ,(1.,1.)
    ,(0.75,0.75)
,(0.75,0.75))) REPRESENTATION_ITEM('') SURFACE() );
#297 = CARTESIAN_POINT('',(-2.184185117604,0.,34.090418698292));
#298 = CARTESIAN_POINT('',(-2.355493754279,0.,34.261727334967));
#299 = CARTESIAN_POINT('',(-2.184185117604,-1.261039865609,
    34.090418698292));
#300 = CARTESIAN_POINT('',(-2.355493754279,-1.359944953107,
    34.261727334967));
#301 = CARTESIAN_POINT('',(-1.092092558802,-1.891559798413,
    34.090418698292));
#302 = CARTESIAN_POINT('',(-1.177746877139,-2.039917429661,
    34.261727334967));
#303 = CARTESIAN_POINT('',(2.184185117604,-3.783119596826,
    34.090418698292));
#304 = CARTESIAN_POINT('',(2.355493754279,-4.079834859322,
    34.261727334967));
#305 = CARTESIAN_POINT('',(2.184185117604,0.,34.090418698292));
#306 = CARTESIAN_POINT('',(2.355493754279,0.,34.261727334967));
#307 = CARTESIAN_POINT('',(2.184185117604,3.783119596826,34.090418698292
    ));
#308 = CARTESIAN_POINT('',(2.355493754279,4.079834859322,34.261727334967
    ));
#309 = CARTESIAN_POINT('',(-1.092092558802,1.891559798413,
    34.090418698292));
#310 = CARTESIAN_POINT('',(-1.177746877139,2.039917429661,
    34.261727334967));
#311 = CARTESIAN_POINT('',(-2.184185117604,1.261039865609,
    34.090418698292));
#312 = CARTESIAN_POINT('',(-2.355493754279,1.359944953107,
    34.261727334967));
#313 = CARTESIAN_POINT('',(-2.184185117604,0.,34.090418698292));
#314 = CARTESIAN_POINT('',(-2.355493754279,0.,34.261727334967));
#315 = ADVANCED_FACE('',(#316),#326,.T.);
#316 = FACE_BOUND('',#317,.T.);
#317 = EDGE_LOOP('',(#318,#319,#324,#325));
#318 = ORIENTED_EDGE('',*,*,#132,.T.);
#319 = ORIENTED_EDGE('',*,*,#320,.T.);
#320 = EDGE_CURVE('',#126,#22,#321,.T.);
#321 = B_SPLINE_CURVE_WITH_KNOTS('',1,(#322,#323),.UNSPECIFIED.,.F.,.F.,
  (2,2),(-0.282842712475,5.090353499861E-32),.PIECEWISE_BEZIER_KNOTS.);
#322 = CARTESIAN_POINT('',(4.282715916871,-5.244814339253E-16,
    34.090418698292));
#323 = CARTESIAN_POINT('',(4.111407280196,-5.035021765683E-16,
    34.261727334967));
#324 = ORIENTED_EDGE('',*,*,#21,.F.);
#325 = ORIENTED_EDGE('',*,*,#320,.F.);
#326 = ( BOUNDED_SURFACE() B_SPLINE_SURFACE(2,1,(
    (#327,#328)
    ,(#329,#330)
    ,(#331,#332)
    ,(#333,#334)
    ,(#335,#336)
    ,(#337,#338)
    ,(#339,#340)
    ,(#341,#342)
,(#343,#344
    )),.UNSPECIFIED.,.T.,.F.,.F.) B_SPLINE_SURFACE_WITH_KNOTS((3,2,2,2,3
    ),(2,2),(-3.14159265359,-2.094395102393,0.,2.094395102393,
    3.14159265359),(0.,0.282842712475),.UNSPECIFIED.) 
GEOMETRIC_REPRESENTATION_ITEM() RATIONAL_B_SPLINE_SURFACE((
    (0.75,0.75)
    ,(0.75,0.75)
    ,(1.,1.)
    ,(0.5,0.5)
    ,(1.,1.)
    ,(0.5,0.5)
    ,(1.,1.)
    ,(0.75,0.75)
,(0.75,0.75))) REPRESENTATION_ITEM('') SURFACE() );
#327 = CARTESIAN_POINT('',(4.111407280196,0.,34.261727334967));
#328 = CARTESIAN_POINT('',(4.282715916871,0.,34.090418698292));
#329 = CARTESIAN_POINT('',(4.111407280196,-2.373722099969,
    34.261727334967));
#330 = CARTESIAN_POINT('',(4.282715916871,-2.472627187468,
    34.090418698292));
#331 = CARTESIAN_POINT('',(2.055703640098,-3.560583149954,
    34.261727334967));
#332 = CARTESIAN_POINT('',(2.141357958435,-3.708940781202,
    34.090418698292));
#333 = CARTESIAN_POINT('',(-4.111407280196,-7.121166299908,
    34.261727334967));
#334 = CARTESIAN_POINT('',(-4.282715916871,-7.417881562404,
    34.090418698292));
#335 = CARTESIAN_POINT('',(-4.111407280196,0.,34.261727334967));
#336 = CARTESIAN_POINT('',(-4.282715916871,0.,34.090418698292));
#337 = CARTESIAN_POINT('',(-4.111407280196,7.121166299908,
    34.261727334967));
#338 = CARTESIAN_POINT('',(-4.282715916871,7.417881562404,
    34.090418698292));
#339 = CARTESIAN_POINT('',(2.055703640098,3.560583149954,34.261727334967
    ));
#340 = CARTESIAN_POINT('',(2.141357958435,3.708940781202,34.090418698292
    ));
#341 = CARTESIAN_POINT('',(4.111407280196,2.373722099969,34.261727334967
    ));
#342 = CARTESIAN_POINT('',(4.282715916871,2.472627187468,34.090418698292
    ));
#343 = CARTESIAN_POINT('',(4.111407280196,0.,34.261727334967));
#344 = CARTESIAN_POINT('',(4.282715916871,0.,34.090418698292));
#345 = ( GEOMETRIC_REPRESENTATION_CONTEXT(3) 
GLOBAL_UNCERTAINTY_ASSIGNED_CONTEXT((#349)) GLOBAL_UNIT_ASSIGNED_CONTEXT
((#346,#347,#348)) REPRESENTATION_CONTEXT('Context #1',
  '3D Context with UNIT and UNCERTAINTY') );
#346 = ( LENGTH_UNIT() NAMED_UNIT(*) SI_UNIT(.MILLI.,.METRE.) );
#347 = ( NAMED_UNIT(*) PLANE_ANGLE_UNIT() SI_UNIT($,.RADIAN.) );
#348 = ( NAMED_UNIT(*) SI_UNIT($,.STERADIAN.) SOLID_ANGLE_UNIT() );
#349 = UNCERTAINTY_MEASURE_WITH_UNIT(LENGTH_MEASURE(1.E-07),#346,
  'distance_accuracy_value','confusion accuracy');
#350 = PRODUCT_RELATED_PRODUCT_CATEGORY('part',$,(#7));
ENDSEC;
END-ISO-10303-21;
