ISO-10303-21;
HEADER;
FILE_DESCRIPTION(('FreeCAD Model'),'2;1');
FILE_NAME('Open CASCADE Shape Model','2025-05-09T09:27:50',('FreeCAD'),(
    'FreeCAD'),'Open CASCADE STEP processor 7.6','FreeCAD','Unknown');
FILE_SCHEMA(('AUTOMOTIVE_DESIGN { 1 0 10303 214 1 1 1 1 }'));
ENDSEC;
DATA;
#1 = APPLICATION_PROTOCOL_DEFINITION('international standard',
  'automotive_design',2000,#2);
#2 = APPLICATION_CONTEXT(
  'core data for automotive mechanical design processes');
#3 = SHAPE_DEFINITION_REPRESENTATION(#4,#10);
#4 = PRODUCT_DEFINITION_SHAPE('','',#5);
#5 = PRODUCT_DEFINITION('design','',#6,#9);
#6 = PRODUCT_DEFINITION_FORMATION('','',#7);
#7 = PRODUCT('Open CASCADE STEP translator 7.6 1',
  'Open CASCADE STEP translator 7.6 1','',(#8));
#8 = PRODUCT_CONTEXT('',#2,'mechanical');
#9 = PRODUCT_DEFINITION_CONTEXT('part definition',#2,'design');
#10 = ADVANCED_BREP_SHAPE_REPRESENTATION('',(#11,#15),#257);
#11 = AXIS2_PLACEMENT_3D('',#12,#13,#14);
#12 = CARTESIAN_POINT('',(0.,0.,0.));
#13 = DIRECTION('',(0.,0.,1.));
#14 = DIRECTION('',(1.,0.,-0.));
#15 = MANIFOLD_SOLID_BREP('',#16);
#16 = CLOSED_SHELL('',(#17,#60,#109,#148,#187,#226));
#17 = ADVANCED_FACE('',(#18),#55,.F.);
#18 = FACE_BOUND('',#19,.T.);
#19 = EDGE_LOOP('',(#20,#29,#36,#43,#50));
#20 = ORIENTED_EDGE('',*,*,#21,.F.);
#21 = EDGE_CURVE('',#22,#24,#26,.T.);
#22 = VERTEX_POINT('',#23);
#23 = CARTESIAN_POINT('',(37.051366409634,0.,103.32275321779));
#24 = VERTEX_POINT('',#25);
#25 = CARTESIAN_POINT('',(109.71527961472,0.,-3.309456811616));
#26 = B_SPLINE_CURVE_WITH_KNOTS('',1,(#27,#28),.UNSPECIFIED.,.F.,.F.,(2,
    2),(0.,113.02183183269),.PIECEWISE_BEZIER_KNOTS.);
#27 = CARTESIAN_POINT('',(37.051366409634,0.,103.32275321779));
#28 = CARTESIAN_POINT('',(109.71527961472,0.,-3.309456811616));
#29 = ORIENTED_EDGE('',*,*,#30,.F.);
#30 = EDGE_CURVE('',#31,#22,#33,.T.);
#31 = VERTEX_POINT('',#32);
#32 = CARTESIAN_POINT('',(-86.81627584394,0.,67.166430111428));
#33 = B_SPLINE_CURVE_WITH_KNOTS('',1,(#34,#35),.UNSPECIFIED.,.F.,.F.,(2,
    2),(0.,113.02183183269),.PIECEWISE_BEZIER_KNOTS.);
#34 = CARTESIAN_POINT('',(-86.81627584394,0.,67.166430111428));
#35 = CARTESIAN_POINT('',(37.051366409634,0.,103.32275321779));
#36 = ORIENTED_EDGE('',*,*,#37,.F.);
#37 = EDGE_CURVE('',#38,#31,#40,.T.);
#38 = VERTEX_POINT('',#39);
#39 = CARTESIAN_POINT('',(-90.70677565787,0.,-61.81161650593));
#40 = B_SPLINE_CURVE_WITH_KNOTS('',1,(#41,#42),.UNSPECIFIED.,.F.,.F.,(2,
    2),(0.,113.02183183269),.PIECEWISE_BEZIER_KNOTS.);
#41 = CARTESIAN_POINT('',(-90.70677565787,0.,-61.81161650593));
#42 = CARTESIAN_POINT('',(-86.81627584394,0.,67.166430111428));
#43 = ORIENTED_EDGE('',*,*,#44,.F.);
#44 = EDGE_CURVE('',#45,#38,#47,.T.);
#45 = VERTEX_POINT('',#46);
#46 = CARTESIAN_POINT('',(30.756405477465,0.,-105.3681100116));
#47 = B_SPLINE_CURVE_WITH_KNOTS('',1,(#48,#49),.UNSPECIFIED.,.F.,.F.,(2,
    2),(0.,113.02183183269),.PIECEWISE_BEZIER_KNOTS.);
#48 = CARTESIAN_POINT('',(30.756405477465,0.,-105.3681100116));
#49 = CARTESIAN_POINT('',(-90.70677565787,0.,-61.81161650593));
#50 = ORIENTED_EDGE('',*,*,#51,.F.);
#51 = EDGE_CURVE('',#24,#45,#52,.T.);
#52 = B_SPLINE_CURVE_WITH_KNOTS('',1,(#53,#54),.UNSPECIFIED.,.F.,.F.,(2,
    2),(0.,113.02183183269),.PIECEWISE_BEZIER_KNOTS.);
#53 = CARTESIAN_POINT('',(109.71527961472,0.,-3.309456811616));
#54 = CARTESIAN_POINT('',(30.756405477465,0.,-105.3681100116));
#55 = B_SPLINE_SURFACE_WITH_KNOTS('',1,1,(
    (#56,#57)
    ,(#58,#59)),.UNSPECIFIED.,.F.,.F.,.F.,(2,2),(2,2),(-92.29076609943,
    90.499260629391),(-79.44906494904,96.09840403643),
  .PIECEWISE_BEZIER_KNOTS.);
#56 = CARTESIAN_POINT('',(-90.70677565787,0.,-105.3681100116));
#57 = CARTESIAN_POINT('',(109.71527961472,0.,-105.3681100116));
#58 = CARTESIAN_POINT('',(-90.70677565787,0.,103.32275321779));
#59 = CARTESIAN_POINT('',(109.71527961472,0.,103.32275321779));
#60 = ADVANCED_FACE('',(#61),#84,.T.);
#61 = FACE_BOUND('',#62,.T.);
#62 = EDGE_LOOP('',(#63,#64,#75));
#63 = ORIENTED_EDGE('',*,*,#51,.T.);
#64 = ORIENTED_EDGE('',*,*,#65,.T.);
#65 = EDGE_CURVE('',#45,#66,#68,.T.);
#66 = VERTEX_POINT('',#67);
#67 = CARTESIAN_POINT('',(0.,342.50916250326,0.));
#68 = B_SPLINE_CURVE_WITH_KNOTS('',3,(#69,#70,#71,#72,#73,#74),
  .UNSPECIFIED.,.F.,.F.,(4,1,1,4),(0.,0.294114439873,0.595873008615,1.),
  .UNSPECIFIED.);
#69 = CARTESIAN_POINT('',(30.756405477465,0.,-105.3681100116));
#70 = CARTESIAN_POINT('',(43.661790905783,33.25153395881,-89.31980676158
    ));
#71 = CARTESIAN_POINT('',(58.896646588243,101.82556199964,
    -59.44369835635));
#72 = CARTESIAN_POINT('',(26.970666100939,227.59411221306,
    -89.90657819055));
#73 = CARTESIAN_POINT('',(12.581612003465,304.88719293382,2.892187431627
    ));
#74 = CARTESIAN_POINT('',(0.,342.50916250326,0.));
#75 = ORIENTED_EDGE('',*,*,#76,.T.);
#76 = EDGE_CURVE('',#66,#24,#77,.T.);
#77 = B_SPLINE_CURVE_WITH_KNOTS('',3,(#78,#79,#80,#81,#82,#83),
  .UNSPECIFIED.,.F.,.F.,(4,1,1,4),(0.,0.404126991385,0.705885560127,1.),
  .UNSPECIFIED.);
#78 = CARTESIAN_POINT('',(0.,342.50916250326,0.));
#79 = CARTESIAN_POINT('',(1.137298222507,304.88719293382,12.859559148683
    ));
#80 = CARTESIAN_POINT('',(93.840631220729,227.59411221306,
    -2.132032822863));
#81 = CARTESIAN_POINT('',(74.734381381956,101.82556199964,37.64492652507
    ));
#82 = CARTESIAN_POINT('',(98.440419649557,33.25153395881,13.923492530447
    ));
#83 = CARTESIAN_POINT('',(109.71527961472,0.,-3.309456811616));
#84 = B_SPLINE_SURFACE_WITH_KNOTS('',3,3,(
    (#85,#86,#87,#88,#89,#90)
    ,(#91,#92,#93,#94,#95,#96)
    ,(#97,#98,#99,#100,#101,#102)
    ,(#103,#104,#105,#106,#107,#108
    )),.UNSPECIFIED.,.F.,.F.,.F.,(4,4),(4,1,1,4),(0.,1.),(0.,
    0.294114439873,0.595873008615,1.),.UNSPECIFIED.);
#85 = CARTESIAN_POINT('',(109.71527961472,0.,-3.309456811616));
#86 = CARTESIAN_POINT('',(98.440419649557,33.25153395881,13.923492530447
    ));
#87 = CARTESIAN_POINT('',(74.734381381956,101.82556199964,37.64492652507
    ));
#88 = CARTESIAN_POINT('',(93.840631220729,227.59411221306,
    -2.132032822863));
#89 = CARTESIAN_POINT('',(1.137298222507,304.88719293382,12.859559148683
    ));
#90 = CARTESIAN_POINT('',(0.,342.50916250326,0.));
#91 = CARTESIAN_POINT('',(83.395654902305,0.,-37.3290078783));
#92 = CARTESIAN_POINT('',(80.180876734966,33.25153395881,-20.49094056689
    ));
#93 = CARTESIAN_POINT('',(61.288347970806,101.82556199964,8.100523150523
    ));
#94 = CARTESIAN_POINT('',(105.21303608388,227.59411221306,
    -43.00757180023));
#95 = CARTESIAN_POINT('',(4.952069482826,304.88719293382,9.537101909664)
  );
#96 = CARTESIAN_POINT('',(0.,342.50916250326,0.));
#97 = CARTESIAN_POINT('',(57.076030189885,0.,-71.34855894498));
#98 = CARTESIAN_POINT('',(61.921333820375,33.25153395881,-54.90537366423
    ));
#99 = CARTESIAN_POINT('',(57.325639428229,101.82556199964,
    -21.81638967109));
#100 = CARTESIAN_POINT('',(77.496463474461,227.59411221306,
    -82.3476774157));
#101 = CARTESIAN_POINT('',(8.766840743146,304.88719293382,6.214644670645
    ));
#102 = CARTESIAN_POINT('',(0.,342.50916250326,0.));
#103 = CARTESIAN_POINT('',(30.756405477465,0.,-105.3681100116));
#104 = CARTESIAN_POINT('',(43.661790905783,33.25153395881,
    -89.31980676158));
#105 = CARTESIAN_POINT('',(58.896646588243,101.82556199964,
    -59.44369835635));
#106 = CARTESIAN_POINT('',(26.970666100939,227.59411221306,
    -89.90657819055));
#107 = CARTESIAN_POINT('',(12.581612003465,304.88719293382,
    2.892187431627));
#108 = CARTESIAN_POINT('',(0.,342.50916250326,0.));
#109 = ADVANCED_FACE('',(#110),#123,.T.);
#110 = FACE_BOUND('',#111,.T.);
#111 = EDGE_LOOP('',(#112,#113,#122));
#112 = ORIENTED_EDGE('',*,*,#44,.T.);
#113 = ORIENTED_EDGE('',*,*,#114,.T.);
#114 = EDGE_CURVE('',#38,#66,#115,.T.);
#115 = B_SPLINE_CURVE_WITH_KNOTS('',3,(#116,#117,#118,#119,#120,#121),
  .UNSPECIFIED.,.F.,.F.,(4,1,1,4),(0.,0.294114439873,0.595873008615,1.),
  .UNSPECIFIED.);
#116 = CARTESIAN_POINT('',(-90.70677565787,0.,-61.81161650593));
#117 = CARTESIAN_POINT('',(-71.45594886009,33.25153395881,
    -69.12616897767));
#118 = CARTESIAN_POINT('',(-38.33425196703,101.82556199964,
    -74.38315252629));
#119 = CARTESIAN_POINT('',(-77.17184287112,227.59411221306,
    -53.4332883111));
#120 = CARTESIAN_POINT('',(6.638565628898,304.88719293382,-11.0720890141
    ));
#121 = CARTESIAN_POINT('',(0.,342.50916250326,0.));
#122 = ORIENTED_EDGE('',*,*,#65,.F.);
#123 = B_SPLINE_SURFACE_WITH_KNOTS('',3,3,(
    (#124,#125,#126,#127,#128,#129)
    ,(#130,#131,#132,#133,#134,#135)
    ,(#136,#137,#138,#139,#140,#141)
    ,(#142,#143,#144,#145,#146,#147
    )),.UNSPECIFIED.,.F.,.F.,.F.,(4,4),(4,1,1,4),(0.,1.),(0.,
    0.294114439873,0.595873008615,1.),.UNSPECIFIED.);
#124 = CARTESIAN_POINT('',(30.756405477465,0.,-105.3681100116));
#125 = CARTESIAN_POINT('',(43.661790905783,33.25153395881,
    -89.31980676158));
#126 = CARTESIAN_POINT('',(58.896646588243,101.82556199964,
    -59.44369835635));
#127 = CARTESIAN_POINT('',(26.970666100939,227.59411221306,
    -89.90657819055));
#128 = CARTESIAN_POINT('',(12.581612003465,304.88719293382,
    2.892187431627));
#129 = CARTESIAN_POINT('',(0.,342.50916250326,0.));
#130 = CARTESIAN_POINT('',(-9.73132156765,0.,-90.84927884309));
#131 = CARTESIAN_POINT('',(5.289210983825,33.25153395881,-82.58859416694
    ));
#132 = CARTESIAN_POINT('',(26.643196407849,101.82556199964,
    -55.78548339376));
#133 = CARTESIAN_POINT('',(-8.39001523094,227.59411221306,
    -113.3536141398));
#134 = CARTESIAN_POINT('',(10.600596545276,304.88719293382,
    -1.762571383616));
#135 = CARTESIAN_POINT('',(0.,342.50916250326,0.));
#136 = CARTESIAN_POINT('',(-50.21904861276,0.,-76.33044767451));
#137 = CARTESIAN_POINT('',(-33.08336893813,33.25153395881,
    -75.85738157231));
#138 = CARTESIAN_POINT('',(-3.034022761999,101.82556199964,
    -61.26155809327));
#139 = CARTESIAN_POINT('',(-54.36957099041,227.59411221306,
    -99.15034834597));
#140 = CARTESIAN_POINT('',(8.619581087087,304.88719293382,-6.41733019886
    ));
#141 = CARTESIAN_POINT('',(0.,342.50916250326,0.));
#142 = CARTESIAN_POINT('',(-90.70677565787,0.,-61.81161650593));
#143 = CARTESIAN_POINT('',(-71.45594886009,33.25153395881,
    -69.12616897767));
#144 = CARTESIAN_POINT('',(-38.33425196703,101.82556199964,
    -74.38315252629));
#145 = CARTESIAN_POINT('',(-77.17184287112,227.59411221306,
    -53.4332883111));
#146 = CARTESIAN_POINT('',(6.638565628898,304.88719293382,-11.0720890141
    ));
#147 = CARTESIAN_POINT('',(0.,342.50916250326,0.));
#148 = ADVANCED_FACE('',(#149),#162,.T.);
#149 = FACE_BOUND('',#150,.T.);
#150 = EDGE_LOOP('',(#151,#152,#153));
#151 = ORIENTED_EDGE('',*,*,#21,.T.);
#152 = ORIENTED_EDGE('',*,*,#76,.F.);
#153 = ORIENTED_EDGE('',*,*,#154,.F.);
#154 = EDGE_CURVE('',#22,#66,#155,.T.);
#155 = B_SPLINE_CURVE_WITH_KNOTS('',3,(#156,#157,#158,#159,#160,#161),
  .UNSPECIFIED.,.F.,.F.,(4,1,1,4),(0.,0.294114439873,0.595873008615,1.),
  .UNSPECIFIED.);
#156 = CARTESIAN_POINT('',(37.051366409634,0.,103.32275321779));
#157 = CARTESIAN_POINT('',(17.177734304446,33.25153395881,
    97.924998387502));
#158 = CARTESIAN_POINT('',(-12.70825876599,101.82556199964,
    82.709542452839));
#159 = CARTESIAN_POINT('',(31.026033519216,227.59411221306,
    88.588909440895));
#160 = CARTESIAN_POINT('',(-11.87872304661,304.88719293382,
    5.055457202599));
#161 = CARTESIAN_POINT('',(0.,342.50916250326,0.));
#162 = B_SPLINE_SURFACE_WITH_KNOTS('',3,3,(
    (#163,#164,#165,#166,#167,#168)
    ,(#169,#170,#171,#172,#173,#174)
    ,(#175,#176,#177,#178,#179,#180)
    ,(#181,#182,#183,#184,#185,#186
    )),.UNSPECIFIED.,.F.,.F.,.F.,(4,4),(4,1,1,4),(0.,1.),(0.,
    0.294114439873,0.595873008615,1.),.UNSPECIFIED.);
#163 = CARTESIAN_POINT('',(37.051366409634,0.,103.32275321779));
#164 = CARTESIAN_POINT('',(17.177734304446,33.25153395881,
    97.924998387502));
#165 = CARTESIAN_POINT('',(-12.70825876599,101.82556199964,
    82.709542452839));
#166 = CARTESIAN_POINT('',(31.026033519216,227.59411221306,
    88.588909440895));
#167 = CARTESIAN_POINT('',(-11.87872304661,304.88719293382,
    5.055457202599));
#168 = CARTESIAN_POINT('',(0.,342.50916250326,0.));
#169 = CARTESIAN_POINT('',(61.272670811331,0.,67.778683207988));
#170 = CARTESIAN_POINT('',(44.26529608615,33.25153395881,69.92449643515)
  );
#171 = CARTESIAN_POINT('',(11.23508575244,101.82556199964,
    60.791882027439));
#172 = CARTESIAN_POINT('',(73.41524759035,227.59411221306,
    86.773472993702));
#173 = CARTESIAN_POINT('',(-7.540049290238,304.88719293382,
    7.656824517961));
#174 = CARTESIAN_POINT('',(0.,342.50916250326,0.));
#175 = CARTESIAN_POINT('',(85.493975213028,0.,32.234613198186));
#176 = CARTESIAN_POINT('',(71.352857867853,33.25153395881,
    41.923994482799));
#177 = CARTESIAN_POINT('',(38.463216355466,101.82556199964,
    47.778287764728));
#178 = CARTESIAN_POINT('',(102.26501942554,227.59411221306,
    48.256684808457));
#179 = CARTESIAN_POINT('',(-3.201375533866,304.88719293382,
    10.258191833322));
#180 = CARTESIAN_POINT('',(0.,342.50916250326,0.));
#181 = CARTESIAN_POINT('',(109.71527961472,0.,-3.309456811616));
#182 = CARTESIAN_POINT('',(98.440419649557,33.25153395881,
    13.923492530447));
#183 = CARTESIAN_POINT('',(74.734381381956,101.82556199964,
    37.64492652507));
#184 = CARTESIAN_POINT('',(93.840631220729,227.59411221306,
    -2.132032822862));
#185 = CARTESIAN_POINT('',(1.137298222507,304.88719293382,
    12.859559148683));
#186 = CARTESIAN_POINT('',(0.,342.50916250326,0.));
#187 = ADVANCED_FACE('',(#188),#201,.T.);
#188 = FACE_BOUND('',#189,.T.);
#189 = EDGE_LOOP('',(#190,#191,#200));
#190 = ORIENTED_EDGE('',*,*,#37,.T.);
#191 = ORIENTED_EDGE('',*,*,#192,.T.);
#192 = EDGE_CURVE('',#31,#66,#193,.T.);
#193 = B_SPLINE_CURVE_WITH_KNOTS('',3,(#194,#195,#196,#197,#198,#199),
  .UNSPECIFIED.,.F.,.F.,(4,1,1,4),(0.,0.294114439873,0.595873008615,1.),
  .UNSPECIFIED.);
#194 = CARTESIAN_POINT('',(-86.81627584394,0.,67.166430111428));
#195 = CARTESIAN_POINT('',(-87.82399599969,33.25153395881,
    46.597484821308));
#196 = CARTESIAN_POINT('',(-82.58851723717,101.82556199964,
    13.472381904737));
#197 = CARTESIAN_POINT('',(-74.66548796976,227.59411221306,
    56.882989883622));
#198 = CARTESIAN_POINT('',(-8.478752808259,304.88719293382,
    -9.735114768806));
#199 = CARTESIAN_POINT('',(0.,342.50916250326,0.));
#200 = ORIENTED_EDGE('',*,*,#114,.F.);
#201 = B_SPLINE_SURFACE_WITH_KNOTS('',3,3,(
    (#202,#203,#204,#205,#206,#207)
    ,(#208,#209,#210,#211,#212,#213)
    ,(#214,#215,#216,#217,#218,#219)
    ,(#220,#221,#222,#223,#224,#225
    )),.UNSPECIFIED.,.F.,.F.,.F.,(4,4),(4,1,1,4),(0.,1.),(0.,
    0.294114439873,0.595873008615,1.),.UNSPECIFIED.);
#202 = CARTESIAN_POINT('',(-90.70677565787,0.,-61.81161650593));
#203 = CARTESIAN_POINT('',(-71.45594886009,33.25153395881,
    -69.12616897767));
#204 = CARTESIAN_POINT('',(-38.33425196703,101.82556199964,
    -74.38315252629));
#205 = CARTESIAN_POINT('',(-77.17184287112,227.59411221306,
    -53.4332883111));
#206 = CARTESIAN_POINT('',(6.638565628898,304.88719293382,-11.0720890141
    ));
#207 = CARTESIAN_POINT('',(0.,342.50916250326,0.));
#208 = CARTESIAN_POINT('',(-89.40994238656,0.,-18.81893430014));
#209 = CARTESIAN_POINT('',(-76.91196457329,33.25153395881,
    -30.55161771134));
#210 = CARTESIAN_POINT('',(-44.82194702181,101.82556199964,
    -42.57784796671));
#211 = CARTESIAN_POINT('',(-110.3983506627,227.59411221306,
    -27.04881448583));
#212 = CARTESIAN_POINT('',(1.599459483179,304.88719293382,
    -10.62643093233));
#213 = CARTESIAN_POINT('',(0.,342.50916250326,0.));
#214 = CARTESIAN_POINT('',(-88.11310911525,0.,24.173747905641));
#215 = CARTESIAN_POINT('',(-82.36798028649,33.25153395881,8.02293355498)
  );
#216 = CARTESIAN_POINT('',(-59.20076861778,101.82556199964,
    -16.04533543432));
#217 = CARTESIAN_POINT('',(-111.0987063002,227.59411221306,21.0693921415
    ));
#218 = CARTESIAN_POINT('',(-3.43964666254,304.88719293382,
    -10.18077285057));
#219 = CARTESIAN_POINT('',(0.,342.50916250326,0.));
#220 = CARTESIAN_POINT('',(-86.81627584394,0.,67.166430111428));
#221 = CARTESIAN_POINT('',(-87.82399599969,33.25153395881,
    46.597484821308));
#222 = CARTESIAN_POINT('',(-82.58851723717,101.82556199964,
    13.472381904737));
#223 = CARTESIAN_POINT('',(-74.66548796976,227.59411221306,
    56.882989883622));
#224 = CARTESIAN_POINT('',(-8.478752808259,304.88719293382,
    -9.735114768806));
#225 = CARTESIAN_POINT('',(0.,342.50916250326,0.));
#226 = ADVANCED_FACE('',(#227),#232,.T.);
#227 = FACE_BOUND('',#228,.T.);
#228 = EDGE_LOOP('',(#229,#230,#231));
#229 = ORIENTED_EDGE('',*,*,#30,.T.);
#230 = ORIENTED_EDGE('',*,*,#154,.T.);
#231 = ORIENTED_EDGE('',*,*,#192,.F.);
#232 = B_SPLINE_SURFACE_WITH_KNOTS('',3,3,(
    (#233,#234,#235,#236,#237,#238)
    ,(#239,#240,#241,#242,#243,#244)
    ,(#245,#246,#247,#248,#249,#250)
    ,(#251,#252,#253,#254,#255,#256
    )),.UNSPECIFIED.,.F.,.F.,.F.,(4,4),(4,1,1,4),(0.,1.),(0.,
    0.294114439873,0.595873008615,1.),.UNSPECIFIED.);
#233 = CARTESIAN_POINT('',(-86.81627584394,0.,67.166430111428));
#234 = CARTESIAN_POINT('',(-87.82399599969,33.25153395881,
    46.597484821308));
#235 = CARTESIAN_POINT('',(-82.58851723717,101.82556199964,
    13.472381904737));
#236 = CARTESIAN_POINT('',(-74.66548796976,227.59411221306,
    56.882989883622));
#237 = CARTESIAN_POINT('',(-8.478752808259,304.88719293382,
    -9.735114768806));
#238 = CARTESIAN_POINT('',(0.,342.50916250326,0.));
#239 = CARTESIAN_POINT('',(-45.52706175941,0.,79.218537813549));
#240 = CARTESIAN_POINT('',(-52.82341923164,33.25153395881,
    63.706656010039));
#241 = CARTESIAN_POINT('',(-54.34468310927,101.82556199964,
    29.470926182508));
#242 = CARTESIAN_POINT('',(-59.83991778055,227.59411221306,
    96.636527432213));
#243 = CARTESIAN_POINT('',(-9.612076221043,304.88719293382,
    -4.804924111671));
#244 = CARTESIAN_POINT('',(0.,342.50916250326,0.));
#245 = CARTESIAN_POINT('',(-4.237847674892,0.,91.270645515669));
#246 = CARTESIAN_POINT('',(-17.8228424636,33.25153395881,80.81582719877)
  );
#247 = CARTESIAN_POINT('',(-33.55406440391,101.82556199964,
    51.344995433973));
#248 = CARTESIAN_POINT('',(-14.2932056093,227.59411221306,
    112.17194881172));
#249 = CARTESIAN_POINT('',(-10.74539963382,304.88719293382,
    0.125266545464));
#250 = CARTESIAN_POINT('',(0.,342.50916250326,0.));
#251 = CARTESIAN_POINT('',(37.051366409634,0.,103.32275321779));
#252 = CARTESIAN_POINT('',(17.177734304446,33.25153395881,
    97.924998387502));
#253 = CARTESIAN_POINT('',(-12.70825876599,101.82556199964,
    82.709542452839));
#254 = CARTESIAN_POINT('',(31.026033519216,227.59411221306,
    88.588909440895));
#255 = CARTESIAN_POINT('',(-11.87872304661,304.88719293382,
    5.055457202599));
#256 = CARTESIAN_POINT('',(0.,342.50916250326,0.));
#257 = ( GEOMETRIC_REPRESENTATION_CONTEXT(3) 
GLOBAL_UNCERTAINTY_ASSIGNED_CONTEXT((#261)) GLOBAL_UNIT_ASSIGNED_CONTEXT
((#258,#259,#260)) REPRESENTATION_CONTEXT('Context #1',
  '3D Context with UNIT and UNCERTAINTY') );
#258 = ( LENGTH_UNIT() NAMED_UNIT(*) SI_UNIT(.MILLI.,.METRE.) );
#259 = ( NAMED_UNIT(*) PLANE_ANGLE_UNIT() SI_UNIT($,.RADIAN.) );
#260 = ( NAMED_UNIT(*) SI_UNIT($,.STERADIAN.) SOLID_ANGLE_UNIT() );
#261 = UNCERTAINTY_MEASURE_WITH_UNIT(LENGTH_MEASURE(1.E-07),#258,
  'distance_accuracy_value','confusion accuracy');
#262 = PRODUCT_RELATED_PRODUCT_CATEGORY('part',$,(#7));
ENDSEC;
END-ISO-10303-21;
