ISO-10303-21;
HEADER;
FILE_DESCRIPTION(('FreeCAD Model'),'2;1');
FILE_NAME('Open CASCADE Shape Model','2025-05-09T07:53:26',('FreeCAD'),(
    'FreeCAD'),'Open CASCADE STEP processor 7.6','FreeCAD','Unknown');
FILE_SCHEMA(('AUTOMOTIVE_DESIGN { 1 0 10303 214 1 1 1 1 }'));
ENDSEC;
DATA;
#1 = APPLICATION_PROTOCOL_DEFINITION('international standard',
  'automotive_design',2000,#2);
#2 = APPLICATION_CONTEXT(
  'core data for automotive mechanical design processes');
#3 = SHAPE_DEFINITION_REPRESENTATION(#4,#10);
#4 = PRODUCT_DEFINITION_SHAPE('','',#5);
#5 = PRODUCT_DEFINITION('design','',#6,#9);
#6 = PRODUCT_DEFINITION_FORMATION('','',#7);
#7 = PRODUCT('Open CASCADE STEP translator 7.6 1',
  'Open CASCADE STEP translator 7.6 1','',(#8));
#8 = PRODUCT_CONTEXT('',#2,'mechanical');
#9 = PRODUCT_DEFINITION_CONTEXT('part definition',#2,'design');
#10 = ADVANCED_BREP_SHAPE_REPRESENTATION('',(#11,#15),#279);
#11 = AXIS2_PLACEMENT_3D('',#12,#13,#14);
#12 = CARTESIAN_POINT('',(0.,0.,0.));
#13 = DIRECTION('',(0.,0.,1.));
#14 = DIRECTION('',(1.,0.,-0.));
#15 = MANIFOLD_SOLID_BREP('',#16);
#16 = CLOSED_SHELL('',(#17,#67,#101,#127,#169,#191,#213,#225,#241,#257,
    #268));
#17 = ADVANCED_FACE('',(#18),#62,.F.);
#18 = FACE_BOUND('',#19,.T.);
#19 = EDGE_LOOP('',(#20,#29,#36,#43,#50,#57));
#20 = ORIENTED_EDGE('',*,*,#21,.T.);
#21 = EDGE_CURVE('',#22,#24,#26,.T.);
#22 = VERTEX_POINT('',#23);
#23 = CARTESIAN_POINT('',(43.174831237772,3.744819665975E-15,
    37.777977333051));
#24 = VERTEX_POINT('',#25);
#25 = CARTESIAN_POINT('',(5.396853904722,37.777977333051,37.777977333051
    ));
#26 = B_SPLINE_CURVE_WITH_KNOTS('',1,(#27,#28),.UNSPECIFIED.,.F.,.F.,(2,
    2),(-49.49747468305,0.),.PIECEWISE_BEZIER_KNOTS.);
#27 = CARTESIAN_POINT('',(43.174831237772,0.,37.777977333051));
#28 = CARTESIAN_POINT('',(5.396853904722,37.777977333051,37.777977333051
    ));
#29 = ORIENTED_EDGE('',*,*,#30,.F.);
#30 = EDGE_CURVE('',#31,#24,#33,.T.);
#31 = VERTEX_POINT('',#32);
#32 = CARTESIAN_POINT('',(-16.19056171416,37.777977333051,
    37.777977333051));
#33 = B_SPLINE_CURVE_WITH_KNOTS('',1,(#34,#35),.UNSPECIFIED.,.F.,.F.,(2,
    2),(0.,20.),.PIECEWISE_BEZIER_KNOTS.);
#34 = CARTESIAN_POINT('',(-16.19056171416,37.777977333051,
    37.777977333051));
#35 = CARTESIAN_POINT('',(5.396853904722,37.777977333051,37.777977333051
    ));
#36 = ORIENTED_EDGE('',*,*,#37,.F.);
#37 = EDGE_CURVE('',#38,#31,#40,.T.);
#38 = VERTEX_POINT('',#39);
#39 = CARTESIAN_POINT('',(-16.19056171416,70.15910076138,37.777977333051
    ));
#40 = B_SPLINE_CURVE_WITH_KNOTS('',1,(#41,#42),.UNSPECIFIED.,.F.,.F.,(2,
    2),(0.,30.),.PIECEWISE_BEZIER_KNOTS.);
#41 = CARTESIAN_POINT('',(-16.19056171416,70.15910076138,37.777977333051
    ));
#42 = CARTESIAN_POINT('',(-16.19056171416,37.777977333051,
    37.777977333051));
#43 = ORIENTED_EDGE('',*,*,#44,.F.);
#44 = EDGE_CURVE('',#45,#38,#47,.T.);
#45 = VERTEX_POINT('',#46);
#46 = CARTESIAN_POINT('',(-43.17483123777,70.15910076138,37.777977333051
    ));
#47 = B_SPLINE_CURVE_WITH_KNOTS('',1,(#48,#49),.UNSPECIFIED.,.F.,.F.,(2,
    2),(-80.,-55.),.PIECEWISE_BEZIER_KNOTS.);
#48 = CARTESIAN_POINT('',(-43.17483123777,70.15910076138,37.777977333051
    ));
#49 = CARTESIAN_POINT('',(-16.19056171416,70.15910076138,37.777977333051
    ));
#50 = ORIENTED_EDGE('',*,*,#51,.T.);
#51 = EDGE_CURVE('',#45,#52,#54,.T.);
#52 = VERTEX_POINT('',#53);
#53 = CARTESIAN_POINT('',(-43.17483123777,0.,37.777977333051));
#54 = B_SPLINE_CURVE_WITH_KNOTS('',1,(#55,#56),.UNSPECIFIED.,.F.,.F.,(2,
    2),(-0.,65.),.PIECEWISE_BEZIER_KNOTS.);
#55 = CARTESIAN_POINT('',(-43.17483123777,70.15910076138,37.777977333051
    ));
#56 = CARTESIAN_POINT('',(-43.17483123777,0.,37.777977333051));
#57 = ORIENTED_EDGE('',*,*,#58,.T.);
#58 = EDGE_CURVE('',#52,#22,#59,.T.);
#59 = B_SPLINE_CURVE_WITH_KNOTS('',1,(#60,#61),.UNSPECIFIED.,.F.,.F.,(2,
    2),(-80.,-3.697785493223E-30),.PIECEWISE_BEZIER_KNOTS.);
#60 = CARTESIAN_POINT('',(-43.17483123777,0.,37.777977333051));
#61 = CARTESIAN_POINT('',(43.174831237772,0.,37.777977333051));
#62 = B_SPLINE_SURFACE_WITH_KNOTS('',1,1,(
    (#63,#64)
    ,(#65,#66
    )),.UNSPECIFIED.,.F.,.F.,.F.,(2,2),(2,2),(-1.42108547152E-14,80.),(
    -65.,0.),.PIECEWISE_BEZIER_KNOTS.);
#63 = CARTESIAN_POINT('',(43.174831237772,0.,37.777977333051));
#64 = CARTESIAN_POINT('',(43.174831237772,70.15910076138,37.777977333051
    ));
#65 = CARTESIAN_POINT('',(-43.17483123777,0.,37.777977333051));
#66 = CARTESIAN_POINT('',(-43.17483123777,70.15910076138,37.777977333051
    ));
#67 = ADVANCED_FACE('',(#68),#96,.F.);
#68 = FACE_BOUND('',#69,.T.);
#69 = EDGE_LOOP('',(#70,#77,#84,#91));
#70 = ORIENTED_EDGE('',*,*,#71,.T.);
#71 = EDGE_CURVE('',#72,#22,#74,.T.);
#72 = VERTEX_POINT('',#73);
#73 = CARTESIAN_POINT('',(43.174831237772,37.777977333051,
    -9.362049164938E-15));
#74 = B_SPLINE_CURVE_WITH_KNOTS('',1,(#75,#76),.UNSPECIFIED.,.F.,.F.,(2,
    2),(-49.49747468305,0.),.PIECEWISE_BEZIER_KNOTS.);
#75 = CARTESIAN_POINT('',(43.174831237772,37.777977333051,
    -1.533878135183E-14));
#76 = CARTESIAN_POINT('',(43.174831237772,3.744819665975E-15,
    37.777977333051));
#77 = ORIENTED_EDGE('',*,*,#78,.T.);
#78 = EDGE_CURVE('',#22,#79,#81,.T.);
#79 = VERTEX_POINT('',#80);
#80 = CARTESIAN_POINT('',(43.174831237772,0.,-37.77797733305));
#81 = B_SPLINE_CURVE_WITH_KNOTS('',1,(#82,#83),.UNSPECIFIED.,.F.,.F.,(2,
    2),(-70.,-0.),.PIECEWISE_BEZIER_KNOTS.);
#82 = CARTESIAN_POINT('',(43.174831237772,0.,37.777977333051));
#83 = CARTESIAN_POINT('',(43.174831237772,0.,-37.77797733305));
#84 = ORIENTED_EDGE('',*,*,#85,.F.);
#85 = EDGE_CURVE('',#86,#79,#88,.T.);
#86 = VERTEX_POINT('',#87);
#87 = CARTESIAN_POINT('',(43.174831237772,37.777977333051,
    -37.77797733305));
#88 = B_SPLINE_CURVE_WITH_KNOTS('',1,(#89,#90),.UNSPECIFIED.,.F.,.F.,(2,
    2),(30.,65.),.PIECEWISE_BEZIER_KNOTS.);
#89 = CARTESIAN_POINT('',(43.174831237772,37.777977333051,
    -37.77797733305));
#90 = CARTESIAN_POINT('',(43.174831237772,0.,-37.77797733305));
#91 = ORIENTED_EDGE('',*,*,#92,.F.);
#92 = EDGE_CURVE('',#72,#86,#93,.T.);
#93 = B_SPLINE_CURVE_WITH_KNOTS('',1,(#94,#95),.UNSPECIFIED.,.F.,.F.,(2,
    2),(-35.,0.),.PIECEWISE_BEZIER_KNOTS.);
#94 = CARTESIAN_POINT('',(43.174831237772,37.777977333051,
    -7.669390675917E-15));
#95 = CARTESIAN_POINT('',(43.174831237772,37.777977333051,
    -37.77797733305));
#96 = B_SPLINE_SURFACE_WITH_KNOTS('',1,1,(
    (#97,#98)
    ,(#99,#100
    )),.UNSPECIFIED.,.F.,.F.,.F.,(2,2),(2,2),(-7.105427357601E-15,70.),(
    -65.,-30.),.PIECEWISE_BEZIER_KNOTS.);
#97 = CARTESIAN_POINT('',(43.174831237772,0.,-37.77797733305));
#98 = CARTESIAN_POINT('',(43.174831237772,37.777977333051,
    -37.77797733305));
#99 = CARTESIAN_POINT('',(43.174831237772,0.,37.777977333051));
#100 = CARTESIAN_POINT('',(43.174831237772,37.777977333051,
    37.777977333051));
#101 = ADVANCED_FACE('',(#102),#122,.F.);
#102 = FACE_BOUND('',#103,.T.);
#103 = EDGE_LOOP('',(#104,#109,#110,#117));
#104 = ORIENTED_EDGE('',*,*,#105,.T.);
#105 = EDGE_CURVE('',#24,#72,#106,.T.);
#106 = B_SPLINE_CURVE_WITH_KNOTS('',1,(#107,#108),.UNSPECIFIED.,.F.,.F.,
  (2,2),(-49.49747468305,1.226634733347E-15),.PIECEWISE_BEZIER_KNOTS.);
#107 = CARTESIAN_POINT('',(5.396853904722,37.777977333051,
    37.777977333051));
#108 = CARTESIAN_POINT('',(43.174831237772,37.777977333051,
    -8.425844248444E-15));
#109 = ORIENTED_EDGE('',*,*,#92,.T.);
#110 = ORIENTED_EDGE('',*,*,#111,.F.);
#111 = EDGE_CURVE('',#112,#86,#114,.T.);
#112 = VERTEX_POINT('',#113);
#113 = CARTESIAN_POINT('',(5.396853904722,37.777977333051,
    -37.77797733305));
#114 = B_SPLINE_CURVE_WITH_KNOTS('',1,(#115,#116),.UNSPECIFIED.,.F.,.F.,
  (2,2),(0.,35.),.PIECEWISE_BEZIER_KNOTS.);
#115 = CARTESIAN_POINT('',(5.396853904722,37.777977333051,
    -37.77797733305));
#116 = CARTESIAN_POINT('',(43.174831237772,37.777977333051,
    -37.77797733305));
#117 = ORIENTED_EDGE('',*,*,#118,.F.);
#118 = EDGE_CURVE('',#24,#112,#119,.T.);
#119 = B_SPLINE_CURVE_WITH_KNOTS('',1,(#120,#121),.UNSPECIFIED.,.F.,.F.,
  (2,2),(-70.,0.),.PIECEWISE_BEZIER_KNOTS.);
#120 = CARTESIAN_POINT('',(5.396853904722,37.777977333051,
    37.777977333051));
#121 = CARTESIAN_POINT('',(5.396853904722,37.777977333051,
    -37.77797733305));
#122 = B_SPLINE_SURFACE_WITH_KNOTS('',1,1,(
    (#123,#124)
    ,(#125,#126
    )),.UNSPECIFIED.,.F.,.F.,.F.,(2,2),(2,2),(-70.,3.469446951954E-15),(
    -7.105427357601E-15,35.),.PIECEWISE_BEZIER_KNOTS.);
#123 = CARTESIAN_POINT('',(5.396853904722,37.777977333051,
    37.777977333051));
#124 = CARTESIAN_POINT('',(43.174831237772,37.777977333051,
    37.777977333051));
#125 = CARTESIAN_POINT('',(5.396853904722,37.777977333051,
    -37.77797733305));
#126 = CARTESIAN_POINT('',(43.174831237772,37.777977333051,
    -37.77797733305));
#127 = ADVANCED_FACE('',(#128),#164,.F.);
#128 = FACE_BOUND('',#129,.T.);
#129 = EDGE_LOOP('',(#130,#137,#144,#151,#158,#163));
#130 = ORIENTED_EDGE('',*,*,#131,.F.);
#131 = EDGE_CURVE('',#132,#38,#134,.T.);
#132 = VERTEX_POINT('',#133);
#133 = CARTESIAN_POINT('',(-16.19056171416,70.15910076138,3.238112342833
    ));
#134 = B_SPLINE_CURVE_WITH_KNOTS('',1,(#135,#136),.UNSPECIFIED.,.F.,.F.,
  (2,2),(0.,32.),.PIECEWISE_BEZIER_KNOTS.);
#135 = CARTESIAN_POINT('',(-16.19056171416,70.15910076138,3.238112342833
    ));
#136 = CARTESIAN_POINT('',(-16.19056171416,70.15910076138,
    37.777977333051));
#137 = ORIENTED_EDGE('',*,*,#138,.T.);
#138 = EDGE_CURVE('',#132,#139,#141,.T.);
#139 = VERTEX_POINT('',#140);
#140 = CARTESIAN_POINT('',(5.396853904722,70.15910076138,3.238112342833)
  );
#141 = B_SPLINE_CURVE_WITH_KNOTS('',1,(#142,#143),.UNSPECIFIED.,.F.,.F.,
  (2,2),(0.,20.),.PIECEWISE_BEZIER_KNOTS.);
#142 = CARTESIAN_POINT('',(-16.19056171416,70.15910076138,3.238112342833
    ));
#143 = CARTESIAN_POINT('',(5.396853904722,70.15910076138,3.238112342833)
  );
#144 = ORIENTED_EDGE('',*,*,#145,.F.);
#145 = EDGE_CURVE('',#146,#139,#148,.T.);
#146 = VERTEX_POINT('',#147);
#147 = CARTESIAN_POINT('',(5.396853904722,70.15910076138,-37.77797733305
    ));
#148 = B_SPLINE_CURVE_WITH_KNOTS('',1,(#149,#150),.UNSPECIFIED.,.F.,.F.,
  (2,2),(1.42108547152E-14,38.),.PIECEWISE_BEZIER_KNOTS.);
#149 = CARTESIAN_POINT('',(5.396853904722,70.15910076138,-37.77797733305
    ));
#150 = CARTESIAN_POINT('',(5.396853904722,70.15910076138,3.238112342833)
  );
#151 = ORIENTED_EDGE('',*,*,#152,.T.);
#152 = EDGE_CURVE('',#146,#153,#155,.T.);
#153 = VERTEX_POINT('',#154);
#154 = CARTESIAN_POINT('',(-43.17483123777,70.15910076138,
    -37.77797733305));
#155 = B_SPLINE_CURVE_WITH_KNOTS('',1,(#156,#157),.UNSPECIFIED.,.F.,.F.,
  (2,2),(35.,80.),.PIECEWISE_BEZIER_KNOTS.);
#156 = CARTESIAN_POINT('',(5.396853904722,70.15910076138,-37.77797733305
    ));
#157 = CARTESIAN_POINT('',(-43.17483123777,70.15910076138,
    -37.77797733305));
#158 = ORIENTED_EDGE('',*,*,#159,.T.);
#159 = EDGE_CURVE('',#153,#45,#160,.T.);
#160 = B_SPLINE_CURVE_WITH_KNOTS('',1,(#161,#162),.UNSPECIFIED.,.F.,.F.,
  (2,2),(0.,70.),.PIECEWISE_BEZIER_KNOTS.);
#161 = CARTESIAN_POINT('',(-43.17483123777,70.15910076138,
    -37.77797733305));
#162 = CARTESIAN_POINT('',(-43.17483123777,70.15910076138,
    37.777977333051));
#163 = ORIENTED_EDGE('',*,*,#44,.T.);
#164 = B_SPLINE_SURFACE_WITH_KNOTS('',1,1,(
    (#165,#166)
    ,(#167,#168
    )),.UNSPECIFIED.,.F.,.F.,.F.,(2,2),(2,2),(-35.,35.),(-40.,5.),
  .PIECEWISE_BEZIER_KNOTS.);
#165 = CARTESIAN_POINT('',(-43.17483123777,70.15910076138,
    37.777977333051));
#166 = CARTESIAN_POINT('',(5.396853904722,70.15910076138,37.777977333051
    ));
#167 = CARTESIAN_POINT('',(-43.17483123777,70.15910076138,
    -37.77797733305));
#168 = CARTESIAN_POINT('',(5.396853904722,70.15910076138,-37.77797733305
    ));
#169 = ADVANCED_FACE('',(#170),#186,.F.);
#170 = FACE_BOUND('',#171,.T.);
#171 = EDGE_LOOP('',(#172,#179,#180,#181));
#172 = ORIENTED_EDGE('',*,*,#173,.T.);
#173 = EDGE_CURVE('',#174,#52,#176,.T.);
#174 = VERTEX_POINT('',#175);
#175 = CARTESIAN_POINT('',(-43.17483123777,0.,-37.77797733305));
#176 = B_SPLINE_CURVE_WITH_KNOTS('',1,(#177,#178),.UNSPECIFIED.,.F.,.F.,
  (2,2),(0.,70.),.PIECEWISE_BEZIER_KNOTS.);
#177 = CARTESIAN_POINT('',(-43.17483123777,0.,-37.77797733305));
#178 = CARTESIAN_POINT('',(-43.17483123777,0.,37.777977333051));
#179 = ORIENTED_EDGE('',*,*,#51,.F.);
#180 = ORIENTED_EDGE('',*,*,#159,.F.);
#181 = ORIENTED_EDGE('',*,*,#182,.T.);
#182 = EDGE_CURVE('',#153,#174,#183,.T.);
#183 = B_SPLINE_CURVE_WITH_KNOTS('',1,(#184,#185),.UNSPECIFIED.,.F.,.F.,
  (2,2),(-0.,65.),.PIECEWISE_BEZIER_KNOTS.);
#184 = CARTESIAN_POINT('',(-43.17483123777,70.15910076138,
    -37.77797733305));
#185 = CARTESIAN_POINT('',(-43.17483123777,0.,-37.77797733305));
#186 = B_SPLINE_SURFACE_WITH_KNOTS('',1,1,(
    (#187,#188)
    ,(#189,#190
    )),.UNSPECIFIED.,.F.,.F.,.F.,(2,2),(2,2),(-70.,0.),(-65.,0.),
  .PIECEWISE_BEZIER_KNOTS.);
#187 = CARTESIAN_POINT('',(-43.17483123777,0.,37.777977333051));
#188 = CARTESIAN_POINT('',(-43.17483123777,70.15910076138,
    37.777977333051));
#189 = CARTESIAN_POINT('',(-43.17483123777,0.,-37.77797733305));
#190 = CARTESIAN_POINT('',(-43.17483123777,70.15910076138,
    -37.77797733305));
#191 = ADVANCED_FACE('',(#192),#208,.F.);
#192 = FACE_BOUND('',#193,.T.);
#193 = EDGE_LOOP('',(#194,#199,#200,#201,#206,#207));
#194 = ORIENTED_EDGE('',*,*,#195,.F.);
#195 = EDGE_CURVE('',#112,#146,#196,.T.);
#196 = B_SPLINE_CURVE_WITH_KNOTS('',1,(#197,#198),.UNSPECIFIED.,.F.,.F.,
  (2,2),(0.,30.),.PIECEWISE_BEZIER_KNOTS.);
#197 = CARTESIAN_POINT('',(5.396853904722,37.777977333051,
    -37.77797733305));
#198 = CARTESIAN_POINT('',(5.396853904722,70.15910076138,-37.77797733305
    ));
#199 = ORIENTED_EDGE('',*,*,#111,.T.);
#200 = ORIENTED_EDGE('',*,*,#85,.T.);
#201 = ORIENTED_EDGE('',*,*,#202,.T.);
#202 = EDGE_CURVE('',#79,#174,#203,.T.);
#203 = B_SPLINE_CURVE_WITH_KNOTS('',1,(#204,#205),.UNSPECIFIED.,.F.,.F.,
  (2,2),(0.,80.),.PIECEWISE_BEZIER_KNOTS.);
#204 = CARTESIAN_POINT('',(43.174831237772,0.,-37.77797733305));
#205 = CARTESIAN_POINT('',(-43.17483123777,0.,-37.77797733305));
#206 = ORIENTED_EDGE('',*,*,#182,.F.);
#207 = ORIENTED_EDGE('',*,*,#152,.F.);
#208 = B_SPLINE_SURFACE_WITH_KNOTS('',1,1,(
    (#209,#210)
    ,(#211,#212
    )),.UNSPECIFIED.,.F.,.F.,.F.,(2,2),(2,2),(-80.,0.),(-65.,0.),
  .PIECEWISE_BEZIER_KNOTS.);
#209 = CARTESIAN_POINT('',(-43.17483123777,0.,-37.77797733305));
#210 = CARTESIAN_POINT('',(-43.17483123777,70.15910076138,
    -37.77797733305));
#211 = CARTESIAN_POINT('',(43.174831237772,0.,-37.77797733305));
#212 = CARTESIAN_POINT('',(43.174831237772,70.15910076138,
    -37.77797733305));
#213 = ADVANCED_FACE('',(#214),#220,.T.);
#214 = FACE_BOUND('',#215,.T.);
#215 = EDGE_LOOP('',(#216,#217,#218,#219));
#216 = ORIENTED_EDGE('',*,*,#173,.F.);
#217 = ORIENTED_EDGE('',*,*,#202,.F.);
#218 = ORIENTED_EDGE('',*,*,#78,.F.);
#219 = ORIENTED_EDGE('',*,*,#58,.F.);
#220 = B_SPLINE_SURFACE_WITH_KNOTS('',1,1,(
    (#221,#222)
    ,(#223,#224
    )),.UNSPECIFIED.,.F.,.F.,.F.,(2,2),(2,2),(-35.,35.),(-40.,40.),
  .PIECEWISE_BEZIER_KNOTS.);
#221 = CARTESIAN_POINT('',(-43.17483123777,0.,37.777977333051));
#222 = CARTESIAN_POINT('',(43.174831237772,0.,37.777977333051));
#223 = CARTESIAN_POINT('',(-43.17483123777,0.,-37.77797733305));
#224 = CARTESIAN_POINT('',(43.174831237772,0.,-37.77797733305));
#225 = ADVANCED_FACE('',(#226),#236,.T.);
#226 = FACE_BOUND('',#227,.T.);
#227 = EDGE_LOOP('',(#228,#233,#234,#235));
#228 = ORIENTED_EDGE('',*,*,#229,.F.);
#229 = EDGE_CURVE('',#24,#139,#230,.T.);
#230 = B_SPLINE_CURVE_WITH_KNOTS('',1,(#231,#232),.UNSPECIFIED.,.F.,.F.,
  (2,2),(-5.183673608685E-15,43.863424398923),.PIECEWISE_BEZIER_KNOTS.);
#231 = CARTESIAN_POINT('',(5.396853904722,37.777977333051,
    37.777977333051));
#232 = CARTESIAN_POINT('',(5.396853904722,70.15910076138,3.238112342833)
  );
#233 = ORIENTED_EDGE('',*,*,#118,.T.);
#234 = ORIENTED_EDGE('',*,*,#195,.T.);
#235 = ORIENTED_EDGE('',*,*,#145,.T.);
#236 = B_SPLINE_SURFACE_WITH_KNOTS('',1,1,(
    (#237,#238)
    ,(#239,#240
    )),.UNSPECIFIED.,.F.,.F.,.F.,(2,2),(2,2),(-35.,35.),(35.,65.),
  .PIECEWISE_BEZIER_KNOTS.);
#237 = CARTESIAN_POINT('',(5.396853904722,37.777977333051,
    37.777977333051));
#238 = CARTESIAN_POINT('',(5.396853904722,70.15910076138,37.777977333051
    ));
#239 = CARTESIAN_POINT('',(5.396853904722,37.777977333051,
    -37.77797733305));
#240 = CARTESIAN_POINT('',(5.396853904722,70.15910076138,-37.77797733305
    ));
#241 = ADVANCED_FACE('',(#242),#252,.F.);
#242 = FACE_BOUND('',#243,.T.);
#243 = EDGE_LOOP('',(#244,#245,#246,#251));
#244 = ORIENTED_EDGE('',*,*,#229,.T.);
#245 = ORIENTED_EDGE('',*,*,#138,.F.);
#246 = ORIENTED_EDGE('',*,*,#247,.F.);
#247 = EDGE_CURVE('',#31,#132,#248,.T.);
#248 = B_SPLINE_CURVE_WITH_KNOTS('',1,(#249,#250),.UNSPECIFIED.,.F.,.F.,
  (2,2),(0.,43.863424398923),.PIECEWISE_BEZIER_KNOTS.);
#249 = CARTESIAN_POINT('',(-16.19056171416,37.777977333051,
    37.777977333051));
#250 = CARTESIAN_POINT('',(-16.19056171416,70.15910076138,3.238112342833
    ));
#251 = ORIENTED_EDGE('',*,*,#30,.T.);
#252 = B_SPLINE_SURFACE_WITH_KNOTS('',1,1,(
    (#253,#254)
    ,(#255,#256
    )),.UNSPECIFIED.,.F.,.F.,.F.,(2,2),(2,2),(-5.183673608685E-15,
    43.863424398923),(0.,20.),.PIECEWISE_BEZIER_KNOTS.);
#253 = CARTESIAN_POINT('',(-16.19056171416,37.777977333051,
    37.777977333051));
#254 = CARTESIAN_POINT('',(5.396853904722,37.777977333051,
    37.777977333051));
#255 = CARTESIAN_POINT('',(-16.19056171416,70.15910076138,3.238112342833
    ));
#256 = CARTESIAN_POINT('',(5.396853904722,70.15910076138,3.238112342833)
  );
#257 = ADVANCED_FACE('',(#258),#263,.F.);
#258 = FACE_BOUND('',#259,.T.);
#259 = EDGE_LOOP('',(#260,#261,#262));
#260 = ORIENTED_EDGE('',*,*,#37,.T.);
#261 = ORIENTED_EDGE('',*,*,#247,.T.);
#262 = ORIENTED_EDGE('',*,*,#131,.T.);
#263 = B_SPLINE_SURFACE_WITH_KNOTS('',1,1,(
    (#264,#265)
    ,(#266,#267
    )),.UNSPECIFIED.,.F.,.F.,.F.,(2,2),(2,2),(3.,35.),(35.,65.),
  .PIECEWISE_BEZIER_KNOTS.);
#264 = CARTESIAN_POINT('',(-16.19056171416,37.777977333051,
    3.238112342833));
#265 = CARTESIAN_POINT('',(-16.19056171416,70.15910076138,3.238112342833
    ));
#266 = CARTESIAN_POINT('',(-16.19056171416,37.777977333051,
    37.777977333051));
#267 = CARTESIAN_POINT('',(-16.19056171416,70.15910076138,
    37.777977333051));
#268 = ADVANCED_FACE('',(#269),#274,.T.);
#269 = FACE_BOUND('',#270,.T.);
#270 = EDGE_LOOP('',(#271,#272,#273));
#271 = ORIENTED_EDGE('',*,*,#105,.F.);
#272 = ORIENTED_EDGE('',*,*,#21,.F.);
#273 = ORIENTED_EDGE('',*,*,#71,.F.);
#274 = B_SPLINE_SURFACE_WITH_KNOTS('',1,1,(
    (#275,#276)
    ,(#277,#278
    )),.UNSPECIFIED.,.F.,.F.,.F.,(2,2),(2,2),(-24.74873734152,
    24.748737341529),(-24.49489742783,18.371173070874),
  .PIECEWISE_BEZIER_KNOTS.);
#275 = CARTESIAN_POINT('',(5.396853904721,56.666965999576,
    18.888988666525));
#276 = CARTESIAN_POINT('',(43.174831237772,37.777977333051,
    -3.067756270367E-14));
#277 = CARTESIAN_POINT('',(5.396853904721,18.888988666525,
    56.666965999576));
#278 = CARTESIAN_POINT('',(43.174831237772,0.,37.777977333051));
#279 = ( GEOMETRIC_REPRESENTATION_CONTEXT(3) 
GLOBAL_UNCERTAINTY_ASSIGNED_CONTEXT((#283)) GLOBAL_UNIT_ASSIGNED_CONTEXT
((#280,#281,#282)) REPRESENTATION_CONTEXT('Context #1',
  '3D Context with UNIT and UNCERTAINTY') );
#280 = ( LENGTH_UNIT() NAMED_UNIT(*) SI_UNIT(.MILLI.,.METRE.) );
#281 = ( NAMED_UNIT(*) PLANE_ANGLE_UNIT() SI_UNIT($,.RADIAN.) );
#282 = ( NAMED_UNIT(*) SI_UNIT($,.STERADIAN.) SOLID_ANGLE_UNIT() );
#283 = UNCERTAINTY_MEASURE_WITH_UNIT(LENGTH_MEASURE(1.E-07),#280,
  'distance_accuracy_value','confusion accuracy');
#284 = PRODUCT_RELATED_PRODUCT_CATEGORY('part',$,(#7));
ENDSEC;
END-ISO-10303-21;
