ISO-10303-21;
HEADER;
FILE_DESCRIPTION(('FreeCAD Model'),'2;1');
FILE_NAME('Open CASCADE Shape Model','2025-05-09T07:46:47',('FreeCAD'),(
    'FreeCAD'),'Open CASCADE STEP processor 7.6','FreeCAD','Unknown');
FILE_SCHEMA(('AUTOMOTIVE_DESIGN { 1 0 10303 214 1 1 1 1 }'));
ENDSEC;
DATA;
#1 = APPLICATION_PROTOCOL_DEFINITION('international standard',
  'automotive_design',2000,#2);
#2 = APPLICATION_CONTEXT(
  'core data for automotive mechanical design processes');
#3 = SHAPE_DEFINITION_REPRESENTATION(#4,#10);
#4 = PRODUCT_DEFINITION_SHAPE('','',#5);
#5 = PRODUCT_DEFINITION('design','',#6,#9);
#6 = PRODUCT_DEFINITION_FORMATION('','',#7);
#7 = PRODUCT('Open CASCADE STEP translator 7.6 1',
  'Open CASCADE STEP translator 7.6 1','',(#8));
#8 = PRODUCT_CONTEXT('',#2,'mechanical');
#9 = PRODUCT_DEFINITION_CONTEXT('part definition',#2,'design');
#10 = ADVANCED_BREP_SHAPE_REPRESENTATION('',(#11,#15),#362);
#11 = AXIS2_PLACEMENT_3D('',#12,#13,#14);
#12 = CARTESIAN_POINT('',(0.,0.,0.));
#13 = DIRECTION('',(0.,0.,1.));
#14 = DIRECTION('',(1.,0.,-0.));
#15 = MANIFOLD_SOLID_BREP('',#16);
#16 = CLOSED_SHELL('',(#17,#72,#122,#154,#177,#217,#246,#258,#291,#310,
    #322,#352));
#17 = ADVANCED_FACE('',(#18),#56,.F.);
#18 = FACE_BOUND('',#19,.F.);
#19 = EDGE_LOOP('',(#20,#30,#40,#48));
#20 = ORIENTED_EDGE('',*,*,#21,.T.);
#21 = EDGE_CURVE('',#22,#24,#26,.T.);
#22 = VERTEX_POINT('',#23);
#23 = CARTESIAN_POINT('',(67.580734358548,15.970680821023,
    -15.60224189629));
#24 = VERTEX_POINT('',#25);
#25 = CARTESIAN_POINT('',(69.358385279872,15.970680821023,0.));
#26 = ( BOUNDED_CURVE() B_SPLINE_CURVE(2,(#27,#28,#29),.UNSPECIFIED.,.F.
,.F.) B_SPLINE_CURVE_WITH_KNOTS((3,3),(1.343903524036,1.570796326795),
.PIECEWISE_BEZIER_KNOTS.) CURVE() GEOMETRIC_REPRESENTATION_ITEM() 
RATIONAL_B_SPLINE_CURVE((1.,0.993571855677,1.)) REPRESENTATION_ITEM('') 
  );
#27 = CARTESIAN_POINT('',(67.580734358548,15.970680821023,
    -15.60224189629));
#28 = CARTESIAN_POINT('',(69.358385279872,15.970680821023,
    -7.902389817682));
#29 = CARTESIAN_POINT('',(69.358385279872,15.970680821023,
    -4.246976226351E-15));
#30 = ORIENTED_EDGE('',*,*,#31,.F.);
#31 = EDGE_CURVE('',#32,#24,#34,.T.);
#32 = VERTEX_POINT('',#33);
#33 = CARTESIAN_POINT('',(83.96015060195,15.970680821023,0.));
#34 = ( BOUNDED_CURVE() B_SPLINE_CURVE(2,(#35,#36,#37,#38,#39),
.UNSPECIFIED.,.F.,.F.) B_SPLINE_CURVE_WITH_KNOTS((3,2,3),(0.,
1.570796326795,3.14159265359),.PIECEWISE_BEZIER_KNOTS.) CURVE() 
GEOMETRIC_REPRESENTATION_ITEM() RATIONAL_B_SPLINE_CURVE((1.,
0.707106781187,1.,0.707106781187,1.)) REPRESENTATION_ITEM('') );
#35 = CARTESIAN_POINT('',(83.96015060195,15.970680821023,0.));
#36 = CARTESIAN_POINT('',(83.96015060195,23.271563482062,0.));
#37 = CARTESIAN_POINT('',(76.659267940911,23.271563482062,0.));
#38 = CARTESIAN_POINT('',(69.358385279872,23.271563482062,0.));
#39 = CARTESIAN_POINT('',(69.358385279872,15.970680821023,0.));
#40 = ORIENTED_EDGE('',*,*,#41,.F.);
#41 = EDGE_CURVE('',#42,#32,#44,.T.);
#42 = VERTEX_POINT('',#43);
#43 = CARTESIAN_POINT('',(81.8082573814,15.970680821023,-18.88692440077)
  );
#44 = ( BOUNDED_CURVE() B_SPLINE_CURVE(2,(#45,#46,#47),.UNSPECIFIED.,.F.
,.F.) B_SPLINE_CURVE_WITH_KNOTS((3,3),(1.343903524036,1.570796326795),
.PIECEWISE_BEZIER_KNOTS.) CURVE() GEOMETRIC_REPRESENTATION_ITEM() 
RATIONAL_B_SPLINE_CURVE((1.,0.993571855677,1.)) REPRESENTATION_ITEM('') 
  );
#45 = CARTESIAN_POINT('',(81.8082573814,15.970680821023,-18.88692440077)
  );
#46 = CARTESIAN_POINT('',(83.96015060195,15.970680821023,-9.566050831931
    ));
#47 = CARTESIAN_POINT('',(83.96015060195,15.970680821023,
    -5.14107648453E-15));
#48 = ORIENTED_EDGE('',*,*,#49,.T.);
#49 = EDGE_CURVE('',#42,#22,#50,.T.);
#50 = ( BOUNDED_CURVE() B_SPLINE_CURVE(2,(#51,#52,#53,#54,#55),
.UNSPECIFIED.,.F.,.F.) B_SPLINE_CURVE_WITH_KNOTS((3,2,3),(0.,
1.570796326795,3.14159265359),.PIECEWISE_BEZIER_KNOTS.) CURVE() 
GEOMETRIC_REPRESENTATION_ITEM() RATIONAL_B_SPLINE_CURVE((1.,
0.707106781187,1.,0.707106781187,1.)) REPRESENTATION_ITEM('') );
#51 = CARTESIAN_POINT('',(81.8082573814,15.970680821023,-18.88692440077)
  );
#52 = CARTESIAN_POINT('',(81.8082573814,23.271563482062,-18.88692440077)
  );
#53 = CARTESIAN_POINT('',(74.694495869974,23.271563482062,
    -17.24458314853));
#54 = CARTESIAN_POINT('',(67.580734358548,23.271563482062,
    -15.60224189629));
#55 = CARTESIAN_POINT('',(67.580734358548,15.970680821023,
    -15.60224189629));
#56 = ( BOUNDED_SURFACE() B_SPLINE_SURFACE(2,2,(
    (#57,#58,#59,#60,#61)
    ,(#62,#63,#64,#65,#66)
    ,(#67,#68,#69,#70,#71
)),.UNSPECIFIED.,.F.,.F.,.F.) B_SPLINE_SURFACE_WITH_KNOTS((3,3),(3,2,3),
  (1.343903524036,1.570796326795),(3.14159265359,4.712388980385,
    6.28318530718),.PIECEWISE_BEZIER_KNOTS.) 
GEOMETRIC_REPRESENTATION_ITEM() RATIONAL_B_SPLINE_SURFACE((
    (1.,0.707106781187,1.,0.707106781187,1.)
    ,(0.993571855677,0.702561396745,0.993571855677,0.702561396745
      ,0.993571855677)
,(1.,0.707106781187,1.,0.707106781187,1.
))) REPRESENTATION_ITEM('') SURFACE() );
#57 = CARTESIAN_POINT('',(67.580734358548,15.970680821023,
    -15.60224189629));
#58 = CARTESIAN_POINT('',(67.580734358548,23.271563482062,
    -15.60224189629));
#59 = CARTESIAN_POINT('',(74.694495869974,23.271563482062,
    -17.24458314853));
#60 = CARTESIAN_POINT('',(81.8082573814,23.271563482062,-18.88692440077)
  );
#61 = CARTESIAN_POINT('',(81.8082573814,15.970680821023,-18.88692440077)
  );
#62 = CARTESIAN_POINT('',(69.358385279872,15.970680821023,
    -7.902389817682));
#63 = CARTESIAN_POINT('',(69.358385279872,23.271563482062,
    -7.902389817682));
#64 = CARTESIAN_POINT('',(76.659267940911,23.271563482062,
    -8.734220324807));
#65 = CARTESIAN_POINT('',(83.96015060195,23.271563482062,-9.566050831931
    ));
#66 = CARTESIAN_POINT('',(83.96015060195,15.970680821023,-9.566050831931
    ));
#67 = CARTESIAN_POINT('',(69.358385279872,15.970680821023,
    -4.246976226351E-15));
#68 = CARTESIAN_POINT('',(69.358385279872,23.271563482062,
    -4.246976226351E-15));
#69 = CARTESIAN_POINT('',(76.659267940911,23.271563482062,
    -4.694026355441E-15));
#70 = CARTESIAN_POINT('',(83.96015060195,23.271563482062,
    -5.14107648453E-15));
#71 = CARTESIAN_POINT('',(83.96015060195,15.970680821023,
    -5.14107648453E-15));
#72 = ADVANCED_FACE('',(#73),#117,.F.);
#73 = FACE_BOUND('',#74,.T.);
#74 = EDGE_LOOP('',(#75,#84,#91,#98,#105,#112));
#75 = ORIENTED_EDGE('',*,*,#76,.F.);
#76 = EDGE_CURVE('',#77,#79,#81,.T.);
#77 = VERTEX_POINT('',#78);
#78 = CARTESIAN_POINT('',(53.743373763328,31.941361642046,
    -31.02875130941));
#79 = VERTEX_POINT('',#80);
#80 = CARTESIAN_POINT('',(53.743373763328,0.,-31.02875130941));
#81 = B_SPLINE_CURVE_WITH_KNOTS('',1,(#82,#83),.UNSPECIFIED.,.F.,.F.,(2,
    2),(49.,84.),.PIECEWISE_BEZIER_KNOTS.);
#82 = CARTESIAN_POINT('',(53.743373763328,31.941361642046,
    -31.02875130941));
#83 = CARTESIAN_POINT('',(53.743373763328,0.,-31.02875130941));
#84 = ORIENTED_EDGE('',*,*,#85,.F.);
#85 = EDGE_CURVE('',#86,#77,#88,.T.);
#86 = VERTEX_POINT('',#87);
#87 = CARTESIAN_POINT('',(79.034373181365,31.941361642046,
    -45.63051663149));
#88 = B_SPLINE_CURVE_WITH_KNOTS('',1,(#89,#90),.UNSPECIFIED.,.F.,.F.,(2,
    2),(-41.11086596357,-9.110865963573),.PIECEWISE_BEZIER_KNOTS.);
#89 = CARTESIAN_POINT('',(79.034373181365,31.941361642046,
    -45.63051663149));
#90 = CARTESIAN_POINT('',(53.743373763328,31.941361642046,
    -31.02875130941));
#91 = ORIENTED_EDGE('',*,*,#92,.T.);
#92 = EDGE_CURVE('',#86,#93,#95,.T.);
#93 = VERTEX_POINT('',#94);
#94 = CARTESIAN_POINT('',(79.034373181365,73.008826610391,
    -45.63051663149));
#95 = B_SPLINE_CURVE_WITH_KNOTS('',1,(#96,#97),.UNSPECIFIED.,.F.,.F.,(2,
    2),(35.,80.),.PIECEWISE_BEZIER_KNOTS.);
#96 = CARTESIAN_POINT('',(79.034373181365,31.941361642046,
    -45.63051663149));
#97 = CARTESIAN_POINT('',(79.034373181365,73.008826610391,
    -45.63051663149));
#98 = ORIENTED_EDGE('',*,*,#99,.T.);
#99 = EDGE_CURVE('',#93,#100,#102,.T.);
#100 = VERTEX_POINT('',#101);
#101 = CARTESIAN_POINT('',(35.565467931614,73.008826610391,
    -20.53373248417));
#102 = B_SPLINE_CURVE_WITH_KNOTS('',1,(#103,#104),.UNSPECIFIED.,.F.,.F.,
  (2,2),(-55.,0.),.PIECEWISE_BEZIER_KNOTS.);
#103 = CARTESIAN_POINT('',(79.034373181365,73.008826610391,
    -45.63051663149));
#104 = CARTESIAN_POINT('',(35.565467931614,73.008826610391,
    -20.53373248417));
#105 = ORIENTED_EDGE('',*,*,#106,.T.);
#106 = EDGE_CURVE('',#100,#107,#109,.T.);
#107 = VERTEX_POINT('',#108);
#108 = CARTESIAN_POINT('',(35.565467931614,0.,-20.53373248417));
#109 = B_SPLINE_CURVE_WITH_KNOTS('',1,(#110,#111),.UNSPECIFIED.,.F.,.F.,
  (2,2),(-80.,0.),.PIECEWISE_BEZIER_KNOTS.);
#110 = CARTESIAN_POINT('',(35.565467931614,73.008826610391,
    -20.53373248417));
#111 = CARTESIAN_POINT('',(35.565467931614,0.,-20.53373248417));
#112 = ORIENTED_EDGE('',*,*,#113,.T.);
#113 = EDGE_CURVE('',#107,#79,#114,.T.);
#114 = B_SPLINE_CURVE_WITH_KNOTS('',1,(#115,#116),.UNSPECIFIED.,.F.,.F.,
  (2,2),(0.,23.),.PIECEWISE_BEZIER_KNOTS.);
#115 = CARTESIAN_POINT('',(35.565467931614,0.,-20.53373248417));
#116 = CARTESIAN_POINT('',(53.743373763328,0.,-31.02875130941));
#117 = B_SPLINE_SURFACE_WITH_KNOTS('',1,1,(
    (#118,#119)
    ,(#120,#121
    )),.UNSPECIFIED.,.F.,.F.,.F.,(2,2),(2,2),(-100.,-45.),(0.,80.),
  .PIECEWISE_BEZIER_KNOTS.);
#118 = CARTESIAN_POINT('',(79.034373181365,0.,-45.63051663149));
#119 = CARTESIAN_POINT('',(79.034373181365,73.008826610391,
    -45.63051663149));
#120 = CARTESIAN_POINT('',(35.565467931614,0.,-20.53373248417));
#121 = CARTESIAN_POINT('',(35.565467931614,73.008826610391,
    -20.53373248417));
#122 = ADVANCED_FACE('',(#123),#147,.F.);
#123 = FACE_BOUND('',#124,.F.);
#124 = EDGE_LOOP('',(#125,#126,#134,#141));
#125 = ORIENTED_EDGE('',*,*,#106,.T.);
#126 = ORIENTED_EDGE('',*,*,#127,.T.);
#127 = EDGE_CURVE('',#107,#128,#130,.T.);
#128 = VERTEX_POINT('',#129);
#129 = CARTESIAN_POINT('',(0.,0.,-41.06746496834));
#130 = ( BOUNDED_CURVE() B_SPLINE_CURVE(2,(#131,#132,#133),
.UNSPECIFIED.,.F.,.F.) B_SPLINE_CURVE_WITH_KNOTS((3,3),(2.094395102393,
3.14159265359),.PIECEWISE_BEZIER_KNOTS.) CURVE() 
GEOMETRIC_REPRESENTATION_ITEM() RATIONAL_B_SPLINE_CURVE((1.,
0.866025403784,1.)) REPRESENTATION_ITEM('') );
#131 = CARTESIAN_POINT('',(35.565467931614,0.,-20.53373248417));
#132 = CARTESIAN_POINT('',(23.71031195441,0.,-41.06746496834));
#133 = CARTESIAN_POINT('',(5.029313952258E-15,0.,-41.06746496834));
#134 = ORIENTED_EDGE('',*,*,#135,.F.);
#135 = EDGE_CURVE('',#136,#128,#138,.T.);
#136 = VERTEX_POINT('',#137);
#137 = CARTESIAN_POINT('',(0.,73.008826610391,-41.06746496834));
#138 = B_SPLINE_CURVE_WITH_KNOTS('',1,(#139,#140),.UNSPECIFIED.,.F.,.F.,
  (2,2),(-80.,-0.),.PIECEWISE_BEZIER_KNOTS.);
#139 = CARTESIAN_POINT('',(0.,73.008826610391,-41.06746496834));
#140 = CARTESIAN_POINT('',(0.,0.,-41.06746496834));
#141 = ORIENTED_EDGE('',*,*,#142,.F.);
#142 = EDGE_CURVE('',#100,#136,#143,.T.);
#143 = ( BOUNDED_CURVE() B_SPLINE_CURVE(2,(#144,#145,#146),
.UNSPECIFIED.,.F.,.F.) B_SPLINE_CURVE_WITH_KNOTS((3,3),(2.094395102393,
3.14159265359),.PIECEWISE_BEZIER_KNOTS.) CURVE() 
GEOMETRIC_REPRESENTATION_ITEM() RATIONAL_B_SPLINE_CURVE((1.,
0.866025403784,1.)) REPRESENTATION_ITEM('') );
#144 = CARTESIAN_POINT('',(35.565467931614,73.008826610391,
    -20.53373248417));
#145 = CARTESIAN_POINT('',(23.71031195441,73.008826610391,
    -41.06746496834));
#146 = CARTESIAN_POINT('',(5.029313952258E-15,73.008826610391,
    -41.06746496834));
#147 = ( BOUNDED_SURFACE() B_SPLINE_SURFACE(2,1,(
    (#148,#149)
    ,(#150,#151)
,(#152,#153
    )),.UNSPECIFIED.,.F.,.F.,.F.) B_SPLINE_SURFACE_WITH_KNOTS((3,3),(2,2
    ),(2.094395102393,3.14159265359),(0.,80.),.PIECEWISE_BEZIER_KNOTS.) 
GEOMETRIC_REPRESENTATION_ITEM() RATIONAL_B_SPLINE_SURFACE((
    (1.,1.)
    ,(0.866025403784,0.866025403784)
,(1.,1.))) REPRESENTATION_ITEM('') SURFACE() );
#148 = CARTESIAN_POINT('',(35.565467931614,0.,-20.53373248417));
#149 = CARTESIAN_POINT('',(35.565467931614,73.008826610391,
    -20.53373248417));
#150 = CARTESIAN_POINT('',(23.71031195441,0.,-41.06746496834));
#151 = CARTESIAN_POINT('',(23.71031195441,73.008826610391,
    -41.06746496834));
#152 = CARTESIAN_POINT('',(5.029313952258E-15,0.,-41.06746496834));
#153 = CARTESIAN_POINT('',(5.029313952258E-15,73.008826610391,
    -41.06746496834));
#154 = ADVANCED_FACE('',(#155),#172,.F.);
#155 = FACE_BOUND('',#156,.T.);
#156 = EDGE_LOOP('',(#157,#165,#170,#171));
#157 = ORIENTED_EDGE('',*,*,#158,.T.);
#158 = EDGE_CURVE('',#93,#159,#161,.T.);
#159 = VERTEX_POINT('',#160);
#160 = CARTESIAN_POINT('',(0.,73.008826610391,-91.26103326298));
#161 = ( BOUNDED_CURVE() B_SPLINE_CURVE(2,(#162,#163,#164),
.UNSPECIFIED.,.F.,.F.) B_SPLINE_CURVE_WITH_KNOTS((3,3),(2.094395102393,
3.14159265359),.PIECEWISE_BEZIER_KNOTS.) CURVE() 
GEOMETRIC_REPRESENTATION_ITEM() RATIONAL_B_SPLINE_CURVE((1.,
0.866025403784,1.)) REPRESENTATION_ITEM('') );
#162 = CARTESIAN_POINT('',(79.034373181365,73.008826610391,
    -45.63051663149));
#163 = CARTESIAN_POINT('',(52.68958212091,73.008826610391,
    -91.26103326298));
#164 = CARTESIAN_POINT('',(1.117625322724E-14,73.008826610391,
    -91.26103326298));
#165 = ORIENTED_EDGE('',*,*,#166,.T.);
#166 = EDGE_CURVE('',#159,#136,#167,.T.);
#167 = B_SPLINE_CURVE_WITH_KNOTS('',1,(#168,#169),.UNSPECIFIED.,.F.,.F.,
  (2,2),(-55.,0.),.PIECEWISE_BEZIER_KNOTS.);
#168 = CARTESIAN_POINT('',(0.,73.008826610391,-91.26103326298));
#169 = CARTESIAN_POINT('',(0.,73.008826610391,-41.06746496834));
#170 = ORIENTED_EDGE('',*,*,#142,.F.);
#171 = ORIENTED_EDGE('',*,*,#99,.F.);
#172 = B_SPLINE_SURFACE_WITH_KNOTS('',1,1,(
    (#173,#174)
    ,(#175,#176
    )),.UNSPECIFIED.,.F.,.F.,.F.,(2,2),(2,2),(-3.552713678801E-15,77.5),
  (-38.9711431703,47.631397208144),.PIECEWISE_BEZIER_KNOTS.);
#173 = CARTESIAN_POINT('',(0.,73.008826610391,-20.53373248417));
#174 = CARTESIAN_POINT('',(79.034373181365,73.008826610391,
    -20.53373248417));
#175 = CARTESIAN_POINT('',(0.,73.008826610391,-91.26103326298));
#176 = CARTESIAN_POINT('',(79.034373181365,73.008826610391,
    -91.26103326298));
#177 = ADVANCED_FACE('',(#178),#210,.T.);
#178 = FACE_BOUND('',#179,.T.);
#179 = EDGE_LOOP('',(#180,#190,#195,#196,#197,#205));
#180 = ORIENTED_EDGE('',*,*,#181,.T.);
#181 = EDGE_CURVE('',#182,#184,#186,.T.);
#182 = VERTEX_POINT('',#183);
#183 = CARTESIAN_POINT('',(91.261033262989,0.,0.));
#184 = VERTEX_POINT('',#185);
#185 = CARTESIAN_POINT('',(0.,0.,-91.26103326298));
#186 = ( BOUNDED_CURVE() B_SPLINE_CURVE(2,(#187,#188,#189),
.UNSPECIFIED.,.F.,.F.) B_SPLINE_CURVE_WITH_KNOTS((3,3),(1.570796326795,
3.14159265359),.PIECEWISE_BEZIER_KNOTS.) CURVE() 
GEOMETRIC_REPRESENTATION_ITEM() RATIONAL_B_SPLINE_CURVE((1.,
0.707106781187,1.)) REPRESENTATION_ITEM('') );
#187 = CARTESIAN_POINT('',(91.261033262989,0.,5.58812661362E-15));
#188 = CARTESIAN_POINT('',(91.261033262989,0.,-91.26103326298));
#189 = CARTESIAN_POINT('',(1.117625322724E-14,0.,-91.26103326298));
#190 = ORIENTED_EDGE('',*,*,#191,.T.);
#191 = EDGE_CURVE('',#184,#159,#192,.T.);
#192 = B_SPLINE_CURVE_WITH_KNOTS('',1,(#193,#194),.UNSPECIFIED.,.F.,.F.,
  (2,2),(0.,80.),.PIECEWISE_BEZIER_KNOTS.);
#193 = CARTESIAN_POINT('',(0.,0.,-91.26103326298));
#194 = CARTESIAN_POINT('',(0.,73.008826610391,-91.26103326298));
#195 = ORIENTED_EDGE('',*,*,#158,.F.);
#196 = ORIENTED_EDGE('',*,*,#92,.F.);
#197 = ORIENTED_EDGE('',*,*,#198,.T.);
#198 = EDGE_CURVE('',#86,#199,#201,.T.);
#199 = VERTEX_POINT('',#200);
#200 = CARTESIAN_POINT('',(91.261033262989,31.941361642046,0.));
#201 = ( BOUNDED_CURVE() B_SPLINE_CURVE(2,(#202,#203,#204),
.UNSPECIFIED.,.F.,.F.) B_SPLINE_CURVE_WITH_KNOTS((3,3),(1.047197551197,
1.570796326795),.PIECEWISE_BEZIER_KNOTS.) CURVE() 
GEOMETRIC_REPRESENTATION_ITEM() RATIONAL_B_SPLINE_CURVE((1.,
0.965925826289,1.)) REPRESENTATION_ITEM('') );
#202 = CARTESIAN_POINT('',(79.034373181365,31.941361642046,
    -45.63051663149));
#203 = CARTESIAN_POINT('',(91.261033262989,31.941361642046,
    -24.45332016324));
#204 = CARTESIAN_POINT('',(91.261033262989,31.941361642046,
    -5.58812661362E-15));
#205 = ORIENTED_EDGE('',*,*,#206,.F.);
#206 = EDGE_CURVE('',#182,#199,#207,.T.);
#207 = B_SPLINE_CURVE_WITH_KNOTS('',1,(#208,#209),.UNSPECIFIED.,.F.,.F.,
  (2,2),(0.,35.),.PIECEWISE_BEZIER_KNOTS.);
#208 = CARTESIAN_POINT('',(91.261033262989,0.,0.));
#209 = CARTESIAN_POINT('',(91.261033262989,31.941361642046,0.));
#210 = ( BOUNDED_SURFACE() B_SPLINE_SURFACE(2,1,(
    (#211,#212)
    ,(#213,#214)
,(#215,#216
    )),.UNSPECIFIED.,.F.,.F.,.F.) B_SPLINE_SURFACE_WITH_KNOTS((3,3),(2,2
    ),(1.570796326795,3.14159265359),(0.,80.),.PIECEWISE_BEZIER_KNOTS.) 
GEOMETRIC_REPRESENTATION_ITEM() RATIONAL_B_SPLINE_SURFACE((
    (1.,1.)
    ,(0.707106781187,0.707106781187)
,(1.,1.))) REPRESENTATION_ITEM('') SURFACE() );
#211 = CARTESIAN_POINT('',(91.261033262989,0.,5.58812661362E-15));
#212 = CARTESIAN_POINT('',(91.261033262989,73.008826610391,
    5.58812661362E-15));
#213 = CARTESIAN_POINT('',(91.261033262989,0.,-91.26103326298));
#214 = CARTESIAN_POINT('',(91.261033262989,73.008826610391,
    -91.26103326298));
#215 = CARTESIAN_POINT('',(1.117625322724E-14,0.,-91.26103326298));
#216 = CARTESIAN_POINT('',(1.117625322724E-14,73.008826610391,
    -91.26103326298));
#217 = ADVANCED_FACE('',(#218),#241,.F.);
#218 = FACE_BOUND('',#219,.T.);
#219 = EDGE_LOOP('',(#220,#221,#222,#227,#228,#235));
#220 = ORIENTED_EDGE('',*,*,#113,.F.);
#221 = ORIENTED_EDGE('',*,*,#127,.T.);
#222 = ORIENTED_EDGE('',*,*,#223,.T.);
#223 = EDGE_CURVE('',#128,#184,#224,.T.);
#224 = B_SPLINE_CURVE_WITH_KNOTS('',1,(#225,#226),.UNSPECIFIED.,.F.,.F.,
  (2,2),(0.,55.),.PIECEWISE_BEZIER_KNOTS.);
#225 = CARTESIAN_POINT('',(0.,0.,-41.06746496834));
#226 = CARTESIAN_POINT('',(0.,0.,-91.26103326298));
#227 = ORIENTED_EDGE('',*,*,#181,.F.);
#228 = ORIENTED_EDGE('',*,*,#229,.F.);
#229 = EDGE_CURVE('',#230,#182,#232,.T.);
#230 = VERTEX_POINT('',#231);
#231 = CARTESIAN_POINT('',(62.057502618833,0.,0.));
#232 = B_SPLINE_CURVE_WITH_KNOTS('',1,(#233,#234),.UNSPECIFIED.,.F.,.F.,
  (2,2),(0.,32.),.PIECEWISE_BEZIER_KNOTS.);
#233 = CARTESIAN_POINT('',(62.057502618833,0.,0.));
#234 = CARTESIAN_POINT('',(91.261033262989,0.,0.));
#235 = ORIENTED_EDGE('',*,*,#236,.F.);
#236 = EDGE_CURVE('',#79,#230,#237,.T.);
#237 = ( BOUNDED_CURVE() B_SPLINE_CURVE(2,(#238,#239,#240),
.UNSPECIFIED.,.F.,.F.) B_SPLINE_CURVE_WITH_KNOTS((3,3),(1.047197551197,
1.570796326795),.PIECEWISE_BEZIER_KNOTS.) CURVE() 
GEOMETRIC_REPRESENTATION_ITEM() RATIONAL_B_SPLINE_CURVE((1.,
0.965925826289,1.)) REPRESENTATION_ITEM('') );
#238 = CARTESIAN_POINT('',(53.743373763328,0.,-31.02875130941));
#239 = CARTESIAN_POINT('',(62.057502618833,0.,-16.628257711));
#240 = CARTESIAN_POINT('',(62.057502618833,0.,-3.799926097262E-15));
#241 = B_SPLINE_SURFACE_WITH_KNOTS('',1,1,(
    (#242,#243)
    ,(#244,#245
    )),.UNSPECIFIED.,.F.,.F.,.F.,(2,2),(2,2),(-77.5,22.5),(
    -38.9711431703,61.0288568297),.PIECEWISE_BEZIER_KNOTS.);
#242 = CARTESIAN_POINT('',(0.,0.,-91.26103326298));
#243 = CARTESIAN_POINT('',(91.261033262989,0.,-91.26103326298));
#244 = CARTESIAN_POINT('',(0.,0.,6.484486424298E-15));
#245 = CARTESIAN_POINT('',(91.261033262989,0.,6.484486424298E-15));
#246 = ADVANCED_FACE('',(#247),#253,.T.);
#247 = FACE_BOUND('',#248,.T.);
#248 = EDGE_LOOP('',(#249,#250,#251,#252));
#249 = ORIENTED_EDGE('',*,*,#135,.F.);
#250 = ORIENTED_EDGE('',*,*,#166,.F.);
#251 = ORIENTED_EDGE('',*,*,#191,.F.);
#252 = ORIENTED_EDGE('',*,*,#223,.F.);
#253 = B_SPLINE_SURFACE_WITH_KNOTS('',1,1,(
    (#254,#255)
    ,(#256,#257
    )),.UNSPECIFIED.,.F.,.F.,.F.,(2,2),(2,2),(-100.,-45.),(0.,80.),
  .PIECEWISE_BEZIER_KNOTS.);
#254 = CARTESIAN_POINT('',(0.,0.,-91.26103326298));
#255 = CARTESIAN_POINT('',(0.,73.008826610391,-91.26103326298));
#256 = CARTESIAN_POINT('',(0.,0.,-41.06746496834));
#257 = CARTESIAN_POINT('',(0.,73.008826610391,-41.06746496834));
#258 = ADVANCED_FACE('',(#259,#270),#286,.T.);
#259 = FACE_BOUND('',#260,.T.);
#260 = EDGE_LOOP('',(#261,#269));
#261 = ORIENTED_EDGE('',*,*,#262,.F.);
#262 = EDGE_CURVE('',#24,#32,#263,.T.);
#263 = ( BOUNDED_CURVE() B_SPLINE_CURVE(2,(#264,#265,#266,#267,#268),
.UNSPECIFIED.,.F.,.F.) B_SPLINE_CURVE_WITH_KNOTS((3,2,3),(3.14159265359,
4.712388980385,6.28318530718),.PIECEWISE_BEZIER_KNOTS.) CURVE() 
GEOMETRIC_REPRESENTATION_ITEM() RATIONAL_B_SPLINE_CURVE((1.,
0.707106781187,1.,0.707106781187,1.)) REPRESENTATION_ITEM('') );
#264 = CARTESIAN_POINT('',(69.358385279872,15.970680821023,0.));
#265 = CARTESIAN_POINT('',(69.358385279872,8.669798159984,0.));
#266 = CARTESIAN_POINT('',(76.659267940911,8.669798159984,0.));
#267 = CARTESIAN_POINT('',(83.96015060195,8.669798159984,0.));
#268 = CARTESIAN_POINT('',(83.96015060195,15.970680821023,0.));
#269 = ORIENTED_EDGE('',*,*,#31,.F.);
#270 = FACE_BOUND('',#271,.T.);
#271 = EDGE_LOOP('',(#272,#279,#284,#285));
#272 = ORIENTED_EDGE('',*,*,#273,.T.);
#273 = EDGE_CURVE('',#199,#274,#276,.T.);
#274 = VERTEX_POINT('',#275);
#275 = CARTESIAN_POINT('',(62.057502618833,31.941361642046,0.));
#276 = B_SPLINE_CURVE_WITH_KNOTS('',1,(#277,#278),.UNSPECIFIED.,.F.,.F.,
  (2,2),(-32.,-0.),.PIECEWISE_BEZIER_KNOTS.);
#277 = CARTESIAN_POINT('',(91.261033262989,31.941361642046,0.));
#278 = CARTESIAN_POINT('',(62.057502618833,31.941361642046,0.));
#279 = ORIENTED_EDGE('',*,*,#280,.T.);
#280 = EDGE_CURVE('',#274,#230,#281,.T.);
#281 = B_SPLINE_CURVE_WITH_KNOTS('',1,(#282,#283),.UNSPECIFIED.,.F.,.F.,
  (2,2),(-35.,-0.),.PIECEWISE_BEZIER_KNOTS.);
#282 = CARTESIAN_POINT('',(62.057502618833,31.941361642046,0.));
#283 = CARTESIAN_POINT('',(62.057502618833,0.,0.));
#284 = ORIENTED_EDGE('',*,*,#229,.T.);
#285 = ORIENTED_EDGE('',*,*,#206,.T.);
#286 = B_SPLINE_SURFACE_WITH_KNOTS('',1,1,(
    (#287,#288)
    ,(#289,#290
    )),.UNSPECIFIED.,.F.,.F.,.F.,(2,2),(2,2),(68.,100.),(0.,35.),
  .PIECEWISE_BEZIER_KNOTS.);
#287 = CARTESIAN_POINT('',(62.057502618833,0.,0.));
#288 = CARTESIAN_POINT('',(62.057502618833,31.941361642046,0.));
#289 = CARTESIAN_POINT('',(91.261033262989,0.,0.));
#290 = CARTESIAN_POINT('',(91.261033262989,31.941361642046,0.));
#291 = ADVANCED_FACE('',(#292),#303,.F.);
#292 = FACE_BOUND('',#293,.F.);
#293 = EDGE_LOOP('',(#294,#295,#296,#297));
#294 = ORIENTED_EDGE('',*,*,#280,.T.);
#295 = ORIENTED_EDGE('',*,*,#236,.F.);
#296 = ORIENTED_EDGE('',*,*,#76,.F.);
#297 = ORIENTED_EDGE('',*,*,#298,.T.);
#298 = EDGE_CURVE('',#77,#274,#299,.T.);
#299 = ( BOUNDED_CURVE() B_SPLINE_CURVE(2,(#300,#301,#302),
.UNSPECIFIED.,.F.,.F.) B_SPLINE_CURVE_WITH_KNOTS((3,3),(1.047197551197,
1.570796326795),.PIECEWISE_BEZIER_KNOTS.) CURVE() 
GEOMETRIC_REPRESENTATION_ITEM() RATIONAL_B_SPLINE_CURVE((1.,
0.965925826289,1.)) REPRESENTATION_ITEM('') );
#300 = CARTESIAN_POINT('',(53.743373763328,31.941361642046,
    -31.02875130941));
#301 = CARTESIAN_POINT('',(62.057502618833,31.941361642046,-16.628257711
    ));
#302 = CARTESIAN_POINT('',(62.057502618833,31.941361642046,
    -3.799926097262E-15));
#303 = ( BOUNDED_SURFACE() B_SPLINE_SURFACE(2,1,(
    (#304,#305)
    ,(#306,#307)
,(#308,#309
    )),.UNSPECIFIED.,.F.,.F.,.F.) B_SPLINE_SURFACE_WITH_KNOTS((3,3),(2,2
    ),(1.047197551197,1.570796326795),(49.,84.),
.PIECEWISE_BEZIER_KNOTS.) GEOMETRIC_REPRESENTATION_ITEM() 
RATIONAL_B_SPLINE_SURFACE((
    (1.,1.)
    ,(0.965925826289,0.965925826289)
,(1.,1.))) REPRESENTATION_ITEM('') SURFACE() );
#304 = CARTESIAN_POINT('',(53.743373763328,31.941361642046,
    -31.02875130941));
#305 = CARTESIAN_POINT('',(53.743373763328,0.,-31.02875130941));
#306 = CARTESIAN_POINT('',(62.057502618833,31.941361642046,-16.628257711
    ));
#307 = CARTESIAN_POINT('',(62.057502618833,0.,-16.628257711));
#308 = CARTESIAN_POINT('',(62.057502618833,31.941361642046,
    -3.799926097262E-15));
#309 = CARTESIAN_POINT('',(62.057502618833,0.,-3.799926097262E-15));
#310 = ADVANCED_FACE('',(#311),#317,.T.);
#311 = FACE_BOUND('',#312,.T.);
#312 = EDGE_LOOP('',(#313,#314,#315,#316));
#313 = ORIENTED_EDGE('',*,*,#198,.F.);
#314 = ORIENTED_EDGE('',*,*,#85,.T.);
#315 = ORIENTED_EDGE('',*,*,#298,.T.);
#316 = ORIENTED_EDGE('',*,*,#273,.F.);
#317 = B_SPLINE_SURFACE_WITH_KNOTS('',1,1,(
    (#318,#319)
    ,(#320,#321
    )),.UNSPECIFIED.,.F.,.F.,.F.,(2,2),(2,2),(-50.00118682389,
    -1.186823890328E-03),(-9.110272532301,32.000000010357),
  .PIECEWISE_BEZIER_KNOTS.);
#318 = CARTESIAN_POINT('',(53.743373763328,31.941361642046,
    -45.63051663149));
#319 = CARTESIAN_POINT('',(91.261033262989,31.941361642046,
    -45.63051663149));
#320 = CARTESIAN_POINT('',(53.743373763328,31.941361642046,0.));
#321 = CARTESIAN_POINT('',(91.261033262989,31.941361642046,0.));
#322 = ADVANCED_FACE('',(#323),#336,.F.);
#323 = FACE_BOUND('',#324,.F.);
#324 = EDGE_LOOP('',(#325,#326,#327,#335));
#325 = ORIENTED_EDGE('',*,*,#262,.F.);
#326 = ORIENTED_EDGE('',*,*,#21,.F.);
#327 = ORIENTED_EDGE('',*,*,#328,.T.);
#328 = EDGE_CURVE('',#22,#42,#329,.T.);
#329 = ( BOUNDED_CURVE() B_SPLINE_CURVE(2,(#330,#331,#332,#333,#334),
.UNSPECIFIED.,.F.,.F.) B_SPLINE_CURVE_WITH_KNOTS((3,2,3),(3.14159265359,
4.712388980385,6.28318530718),.PIECEWISE_BEZIER_KNOTS.) CURVE() 
GEOMETRIC_REPRESENTATION_ITEM() RATIONAL_B_SPLINE_CURVE((1.,
0.707106781187,1.,0.707106781187,1.)) REPRESENTATION_ITEM('') );
#330 = CARTESIAN_POINT('',(67.580734358548,15.970680821023,
    -15.60224189629));
#331 = CARTESIAN_POINT('',(67.580734358548,8.669798159984,
    -15.60224189629));
#332 = CARTESIAN_POINT('',(74.694495869974,8.669798159984,
    -17.24458314853));
#333 = CARTESIAN_POINT('',(81.8082573814,8.669798159984,-18.88692440077)
  );
#334 = CARTESIAN_POINT('',(81.8082573814,15.970680821023,-18.88692440077
    ));
#335 = ORIENTED_EDGE('',*,*,#41,.T.);
#336 = ( BOUNDED_SURFACE() B_SPLINE_SURFACE(2,2,(
    (#337,#338,#339,#340,#341)
    ,(#342,#343,#344,#345,#346)
    ,(#347,#348,#349,#350,#351
)),.UNSPECIFIED.,.F.,.F.,.F.) B_SPLINE_SURFACE_WITH_KNOTS((3,3),(3,2,3),
  (1.343903524036,1.570796326795),(0.,1.570796326795,3.14159265359),
.PIECEWISE_BEZIER_KNOTS.) GEOMETRIC_REPRESENTATION_ITEM() 
RATIONAL_B_SPLINE_SURFACE((
    (1.,0.707106781187,1.,0.707106781187,1.)
    ,(0.993571855677,0.702561396745,0.993571855677,0.702561396745
      ,0.993571855677)
,(1.,0.707106781187,1.,0.707106781187,1.
))) REPRESENTATION_ITEM('') SURFACE() );
#337 = CARTESIAN_POINT('',(81.8082573814,15.970680821023,-18.88692440077
    ));
#338 = CARTESIAN_POINT('',(81.8082573814,8.669798159984,-18.88692440077)
  );
#339 = CARTESIAN_POINT('',(74.694495869974,8.669798159984,
    -17.24458314853));
#340 = CARTESIAN_POINT('',(67.580734358548,8.669798159984,
    -15.60224189629));
#341 = CARTESIAN_POINT('',(67.580734358548,15.970680821023,
    -15.60224189629));
#342 = CARTESIAN_POINT('',(83.96015060195,15.970680821023,
    -9.566050831931));
#343 = CARTESIAN_POINT('',(83.96015060195,8.669798159984,-9.566050831931
    ));
#344 = CARTESIAN_POINT('',(76.659267940911,8.669798159984,
    -8.734220324807));
#345 = CARTESIAN_POINT('',(69.358385279872,8.669798159984,
    -7.902389817682));
#346 = CARTESIAN_POINT('',(69.358385279872,15.970680821023,
    -7.902389817682));
#347 = CARTESIAN_POINT('',(83.96015060195,15.970680821023,
    -5.14107648453E-15));
#348 = CARTESIAN_POINT('',(83.96015060195,8.669798159984,
    -5.14107648453E-15));
#349 = CARTESIAN_POINT('',(76.659267940911,8.669798159984,
    -4.694026355441E-15));
#350 = CARTESIAN_POINT('',(69.358385279872,8.669798159984,
    -4.246976226351E-15));
#351 = CARTESIAN_POINT('',(69.358385279872,15.970680821023,
    -4.246976226351E-15));
#352 = ADVANCED_FACE('',(#353),#357,.T.);
#353 = FACE_BOUND('',#354,.T.);
#354 = EDGE_LOOP('',(#355,#356));
#355 = ORIENTED_EDGE('',*,*,#328,.T.);
#356 = ORIENTED_EDGE('',*,*,#49,.T.);
#357 = B_SPLINE_SURFACE_WITH_KNOTS('',1,1,(
    (#358,#359)
    ,(#360,#361
    )),.UNSPECIFIED.,.F.,.F.,.F.,(2,2),(2,2),(-8.,8.),(-8.,8.),
  .PIECEWISE_BEZIER_KNOTS.);
#358 = CARTESIAN_POINT('',(67.580734358548,8.669798159984,
    -15.60224189629));
#359 = CARTESIAN_POINT('',(67.580734358548,23.271563482062,
    -15.60224189629));
#360 = CARTESIAN_POINT('',(81.8082573814,8.669798159984,-18.88692440077)
  );
#361 = CARTESIAN_POINT('',(81.8082573814,23.271563482062,-18.88692440077
    ));
#362 = ( GEOMETRIC_REPRESENTATION_CONTEXT(3) 
GLOBAL_UNCERTAINTY_ASSIGNED_CONTEXT((#366)) GLOBAL_UNIT_ASSIGNED_CONTEXT
((#363,#364,#365)) REPRESENTATION_CONTEXT('Context #1',
  '3D Context with UNIT and UNCERTAINTY') );
#363 = ( LENGTH_UNIT() NAMED_UNIT(*) SI_UNIT(.MILLI.,.METRE.) );
#364 = ( NAMED_UNIT(*) PLANE_ANGLE_UNIT() SI_UNIT($,.RADIAN.) );
#365 = ( NAMED_UNIT(*) SI_UNIT($,.STERADIAN.) SOLID_ANGLE_UNIT() );
#366 = UNCERTAINTY_MEASURE_WITH_UNIT(LENGTH_MEASURE(5.E-07),#363,
  'distance_accuracy_value','confusion accuracy');
#367 = PRODUCT_RELATED_PRODUCT_CATEGORY('part',$,(#7));
ENDSEC;
END-ISO-10303-21;
