ISO-10303-21;
HEADER;
FILE_DESCRIPTION(('FreeCAD Model'),'2;1');
FILE_NAME('Open CASCADE Shape Model','2025-05-09T04:36:47',('FreeCAD'),(
    'FreeCAD'),'Open CASCADE STEP processor 7.6','FreeCAD','Unknown');
FILE_SCHEMA(('AUTOMOTIVE_DESIGN { 1 0 10303 214 1 1 1 1 }'));
ENDSEC;
DATA;
#1 = APPLICATION_PROTOCOL_DEFINITION('international standard',
  'automotive_design',2000,#2);
#2 = APPLICATION_CONTEXT(
  'core data for automotive mechanical design processes');
#3 = SHAPE_DEFINITION_REPRESENTATION(#4,#10);
#4 = PRODUCT_DEFINITION_SHAPE('','',#5);
#5 = PRODUCT_DEFINITION('design','',#6,#9);
#6 = PRODUCT_DEFINITION_FORMATION('','',#7);
#7 = PRODUCT('Open CASCADE STEP translator 7.6 1',
  'Open CASCADE STEP translator 7.6 1','',(#8));
#8 = PRODUCT_CONTEXT('',#2,'mechanical');
#9 = PRODUCT_DEFINITION_CONTEXT('part definition',#2,'design');
#10 = ADVANCED_BREP_SHAPE_REPRESENTATION('',(#11,#15),#197);
#11 = AXIS2_PLACEMENT_3D('',#12,#13,#14);
#12 = CARTESIAN_POINT('',(0.,0.,0.));
#13 = DIRECTION('',(0.,0.,1.));
#14 = DIRECTION('',(1.,0.,-0.));
#15 = MANIFOLD_SOLID_BREP('',#16);
#16 = CLOSED_SHELL('',(#17,#51,#88,#111,#148,#171));
#17 = ADVANCED_FACE('',(#18,#32),#46,.F.);
#18 = FACE_BOUND('',#19,.T.);
#19 = EDGE_LOOP('',(#20));
#20 = ORIENTED_EDGE('',*,*,#21,.T.);
#21 = EDGE_CURVE('',#22,#22,#24,.T.);
#22 = VERTEX_POINT('',#23);
#23 = CARTESIAN_POINT('',(0.,1.093212895076E-15,5.466064475381));
#24 = ( BOUNDED_CURVE() B_SPLINE_CURVE(2,(#25,#26,#27,#28,#29,#30,#31),
.UNSPECIFIED.,.T.,.F.) B_SPLINE_CURVE_WITH_KNOTS((1,2,2,2,2,1),(
    -2.094395102393,0.,2.094395102393,4.188790204786,6.28318530718,
8.377580409573),.UNSPECIFIED.) CURVE() GEOMETRIC_REPRESENTATION_ITEM() 
RATIONAL_B_SPLINE_CURVE((1.,0.5,1.,0.5,1.,0.5,1.)) REPRESENTATION_ITEM(
  '') );
#25 = CARTESIAN_POINT('',(0.,1.202534184584E-15,5.466064475381));
#26 = CARTESIAN_POINT('',(0.,-9.467501388808,5.466064475381));
#27 = CARTESIAN_POINT('',(0.,-4.733750694404,-2.733032237691));
#28 = CARTESIAN_POINT('',(0.,-3.74386804191E-15,-10.93212895076));
#29 = CARTESIAN_POINT('',(0.,4.733750694404,-2.733032237691));
#30 = CARTESIAN_POINT('',(0.,9.467501388808,5.466064475381));
#31 = CARTESIAN_POINT('',(0.,1.202534184584E-15,5.466064475381));
#32 = FACE_BOUND('',#33,.T.);
#33 = EDGE_LOOP('',(#34));
#34 = ORIENTED_EDGE('',*,*,#35,.F.);
#35 = EDGE_CURVE('',#36,#36,#38,.T.);
#36 = VERTEX_POINT('',#37);
#37 = CARTESIAN_POINT('',(0.,2.186425790153E-15,7.652490265534));
#38 = ( BOUNDED_CURVE() B_SPLINE_CURVE(2,(#39,#40,#41,#42,#43,#44,#45),
.UNSPECIFIED.,.T.,.F.) B_SPLINE_CURVE_WITH_KNOTS((1,2,2,2,2,1),(
    -2.094395102393,0.,2.094395102393,4.188790204786,6.28318530718,
8.377580409573),.UNSPECIFIED.) CURVE() GEOMETRIC_REPRESENTATION_ITEM() 
RATIONAL_B_SPLINE_CURVE((1.,0.5,1.,0.5,1.,0.5,1.)) REPRESENTATION_ITEM(
  '') );
#39 = CARTESIAN_POINT('',(0.,1.683547858417E-15,7.652490265534));
#40 = CARTESIAN_POINT('',(0.,-13.25450194433,7.652490265534));
#41 = CARTESIAN_POINT('',(0.,-6.627250972165,-3.826245132767));
#42 = CARTESIAN_POINT('',(0.,-5.241415258673E-15,-15.30498053106));
#43 = CARTESIAN_POINT('',(0.,6.627250972165,-3.826245132767));
#44 = CARTESIAN_POINT('',(0.,13.254501944331,7.652490265534));
#45 = CARTESIAN_POINT('',(0.,1.683547858417E-15,7.652490265534));
#46 = B_SPLINE_SURFACE_WITH_KNOTS('',1,1,(
    (#47,#48)
    ,(#49,#50)),.UNSPECIFIED.,.F.,.F.,.F.,(2,2),(2,2),(-7.,7.),(-7.,7.),
  .PIECEWISE_BEZIER_KNOTS.);
#47 = CARTESIAN_POINT('',(0.,7.652490265534,-7.652490265534));
#48 = CARTESIAN_POINT('',(0.,-7.652490265534,-7.652490265534));
#49 = CARTESIAN_POINT('',(0.,7.652490265534,7.652490265534));
#50 = CARTESIAN_POINT('',(0.,-7.652490265534,7.652490265534));
#51 = ADVANCED_FACE('',(#52),#73,.T.);
#52 = FACE_BOUND('',#53,.T.);
#53 = EDGE_LOOP('',(#54,#55,#62,#72));
#54 = ORIENTED_EDGE('',*,*,#35,.T.);
#55 = ORIENTED_EDGE('',*,*,#56,.T.);
#56 = EDGE_CURVE('',#36,#57,#59,.T.);
#57 = VERTEX_POINT('',#58);
#58 = CARTESIAN_POINT('',(2.186425790153,2.186425790153E-15,
    7.652490265534));
#59 = B_SPLINE_CURVE_WITH_KNOTS('',1,(#60,#61),.UNSPECIFIED.,.F.,.F.,(2,
    2),(0.,2.),.PIECEWISE_BEZIER_KNOTS.);
#60 = CARTESIAN_POINT('',(0.,1.694479987368E-15,7.652490265534));
#61 = CARTESIAN_POINT('',(2.186425790153,1.694479987368E-15,
    7.652490265534));
#62 = ORIENTED_EDGE('',*,*,#63,.F.);
#63 = EDGE_CURVE('',#57,#57,#64,.T.);
#64 = ( BOUNDED_CURVE() B_SPLINE_CURVE(2,(#65,#66,#67,#68,#69,#70,#71),
.UNSPECIFIED.,.T.,.F.) B_SPLINE_CURVE_WITH_KNOTS((1,2,2,2,2,1),(
    -2.094395102393,0.,2.094395102393,4.188790204786,6.28318530718,
8.377580409573),.UNSPECIFIED.) CURVE() GEOMETRIC_REPRESENTATION_ITEM() 
RATIONAL_B_SPLINE_CURVE((1.,0.5,1.,0.5,1.,0.5,1.)) REPRESENTATION_ITEM(
  '') );
#65 = CARTESIAN_POINT('',(2.186425790153,1.683547858417E-15,
    7.652490265534));
#66 = CARTESIAN_POINT('',(2.186425790153,-13.25450194433,7.652490265534)
  );
#67 = CARTESIAN_POINT('',(2.186425790153,-6.627250972165,-3.826245132767
    ));
#68 = CARTESIAN_POINT('',(2.186425790153,-5.241415258673E-15,
    -15.30498053106));
#69 = CARTESIAN_POINT('',(2.186425790153,6.627250972165,-3.826245132767)
  );
#70 = CARTESIAN_POINT('',(2.186425790153,13.254501944331,7.652490265534)
  );
#71 = CARTESIAN_POINT('',(2.186425790153,1.683547858417E-15,
    7.652490265534));
#72 = ORIENTED_EDGE('',*,*,#56,.F.);
#73 = ( BOUNDED_SURFACE() B_SPLINE_SURFACE(2,1,(
    (#74,#75)
    ,(#76,#77)
    ,(#78,#79)
    ,(#80,#81)
    ,(#82,#83)
    ,(#84,#85)
,(#86,#87
    )),.UNSPECIFIED.,.T.,.F.,.F.) B_SPLINE_SURFACE_WITH_KNOTS((1,2,2,2,2
    ,1),(2,2),(-2.094395102393,0.,2.094395102393,4.188790204786,
    6.28318530718,8.377580409573),(0.,2.),.UNSPECIFIED.) 
GEOMETRIC_REPRESENTATION_ITEM() RATIONAL_B_SPLINE_SURFACE((
    (1.,1.)
    ,(0.5,0.5)
    ,(1.,1.)
    ,(0.5,0.5)
    ,(1.,1.)
    ,(0.5,0.5)
,(1.,1.))) REPRESENTATION_ITEM('') SURFACE() );
#74 = CARTESIAN_POINT('',(0.,1.683547858417E-15,7.652490265534));
#75 = CARTESIAN_POINT('',(2.186425790153,1.683547858417E-15,
    7.652490265534));
#76 = CARTESIAN_POINT('',(0.,-13.25450194433,7.652490265534));
#77 = CARTESIAN_POINT('',(2.186425790153,-13.25450194433,7.652490265534)
  );
#78 = CARTESIAN_POINT('',(0.,-6.627250972165,-3.826245132767));
#79 = CARTESIAN_POINT('',(2.186425790153,-6.627250972165,-3.826245132767
    ));
#80 = CARTESIAN_POINT('',(0.,-5.241415258673E-15,-15.30498053106));
#81 = CARTESIAN_POINT('',(2.186425790153,-5.241415258673E-15,
    -15.30498053106));
#82 = CARTESIAN_POINT('',(0.,6.627250972165,-3.826245132767));
#83 = CARTESIAN_POINT('',(2.186425790153,6.627250972165,-3.826245132767)
  );
#84 = CARTESIAN_POINT('',(0.,13.254501944331,7.652490265534));
#85 = CARTESIAN_POINT('',(2.186425790153,13.254501944331,7.652490265534)
  );
#86 = CARTESIAN_POINT('',(0.,1.683547858417E-15,7.652490265534));
#87 = CARTESIAN_POINT('',(2.186425790153,1.683547858417E-15,
    7.652490265534));
#88 = ADVANCED_FACE('',(#89,#103),#106,.T.);
#89 = FACE_BOUND('',#90,.F.);
#90 = EDGE_LOOP('',(#91));
#91 = ORIENTED_EDGE('',*,*,#92,.T.);
#92 = EDGE_CURVE('',#93,#93,#95,.T.);
#93 = VERTEX_POINT('',#94);
#94 = CARTESIAN_POINT('',(2.186425790153,1.093212895076E-15,
    4.372851580305));
#95 = ( BOUNDED_CURVE() B_SPLINE_CURVE(2,(#96,#97,#98,#99,#100,#101,#102
),.UNSPECIFIED.,.T.,.F.) B_SPLINE_CURVE_WITH_KNOTS((1,2,2,2,2,1),(
    -2.094395102393,0.,2.094395102393,4.188790204786,6.28318530718,
8.377580409573),.UNSPECIFIED.) CURVE() GEOMETRIC_REPRESENTATION_ITEM() 
RATIONAL_B_SPLINE_CURVE((1.,0.5,1.,0.5,1.,0.5,1.)) REPRESENTATION_ITEM(
  '') );
#96 = CARTESIAN_POINT('',(2.186425790153,9.620273476671E-16,
    4.372851580305));
#97 = CARTESIAN_POINT('',(2.186425790153,-7.574001111046,4.372851580305)
  );
#98 = CARTESIAN_POINT('',(2.186425790153,-3.787000555523,-2.186425790153
    ));
#99 = CARTESIAN_POINT('',(2.186425790153,-2.995094433528E-15,
    -8.74570316061));
#100 = CARTESIAN_POINT('',(2.186425790153,3.787000555523,-2.186425790153
    ));
#101 = CARTESIAN_POINT('',(2.186425790153,7.574001111046,4.372851580305)
  );
#102 = CARTESIAN_POINT('',(2.186425790153,9.620273476671E-16,
    4.372851580305));
#103 = FACE_BOUND('',#104,.F.);
#104 = EDGE_LOOP('',(#105));
#105 = ORIENTED_EDGE('',*,*,#63,.F.);
#106 = B_SPLINE_SURFACE_WITH_KNOTS('',1,1,(
    (#107,#108)
    ,(#109,#110
    )),.UNSPECIFIED.,.F.,.F.,.F.,(2,2),(2,2),(-7.,7.),(-7.,7.),
  .PIECEWISE_BEZIER_KNOTS.);
#107 = CARTESIAN_POINT('',(2.186425790153,7.652490265534,-7.652490265534
    ));
#108 = CARTESIAN_POINT('',(2.186425790153,-7.652490265534,
    -7.652490265534));
#109 = CARTESIAN_POINT('',(2.186425790153,7.652490265534,7.652490265534)
  );
#110 = CARTESIAN_POINT('',(2.186425790153,-7.652490265534,7.652490265534
    ));
#111 = ADVANCED_FACE('',(#112),#133,.F.);
#112 = FACE_BOUND('',#113,.F.);
#113 = EDGE_LOOP('',(#114,#121,#131,#132));
#114 = ORIENTED_EDGE('',*,*,#115,.T.);
#115 = EDGE_CURVE('',#93,#116,#118,.T.);
#116 = VERTEX_POINT('',#117);
#117 = CARTESIAN_POINT('',(-10.93212895076,1.093212895076E-15,
    4.372851580305));
#118 = B_SPLINE_CURVE_WITH_KNOTS('',1,(#119,#120),.UNSPECIFIED.,.F.,.F.,
  (2,2),(0.,12.),.PIECEWISE_BEZIER_KNOTS.);
#119 = CARTESIAN_POINT('',(2.186425790153,9.729594766179E-16,
    4.372851580305));
#120 = CARTESIAN_POINT('',(-10.93212895076,9.729594766179E-16,
    4.372851580305));
#121 = ORIENTED_EDGE('',*,*,#122,.T.);
#122 = EDGE_CURVE('',#116,#116,#123,.T.);
#123 = ( BOUNDED_CURVE() B_SPLINE_CURVE(2,(#124,#125,#126,#127,#128,#129
,#130),.UNSPECIFIED.,.T.,.F.) B_SPLINE_CURVE_WITH_KNOTS((1,2,2,2,2,1),(
    -2.094395102393,0.,2.094395102393,4.188790204786,6.28318530718,
8.377580409573),.UNSPECIFIED.) CURVE() GEOMETRIC_REPRESENTATION_ITEM() 
RATIONAL_B_SPLINE_CURVE((1.,0.5,1.,0.5,1.,0.5,1.)) REPRESENTATION_ITEM(
  '') );
#124 = CARTESIAN_POINT('',(-10.93212895076,9.620273476671E-16,
    4.372851580305));
#125 = CARTESIAN_POINT('',(-10.93212895076,-7.574001111046,
    4.372851580305));
#126 = CARTESIAN_POINT('',(-10.93212895076,-3.787000555523,
    -2.186425790153));
#127 = CARTESIAN_POINT('',(-10.93212895076,-2.995094433528E-15,
    -8.74570316061));
#128 = CARTESIAN_POINT('',(-10.93212895076,3.787000555523,
    -2.186425790153));
#129 = CARTESIAN_POINT('',(-10.93212895076,7.574001111046,4.372851580305
    ));
#130 = CARTESIAN_POINT('',(-10.93212895076,9.620273476671E-16,
    4.372851580305));
#131 = ORIENTED_EDGE('',*,*,#115,.F.);
#132 = ORIENTED_EDGE('',*,*,#92,.F.);
#133 = ( BOUNDED_SURFACE() B_SPLINE_SURFACE(2,1,(
    (#134,#135)
    ,(#136,#137)
    ,(#138,#139)
    ,(#140,#141)
    ,(#142,#143)
    ,(#144,#145)
,(#146,#147
    )),.UNSPECIFIED.,.T.,.F.,.F.) B_SPLINE_SURFACE_WITH_KNOTS((1,2,2,2,2
    ,1),(2,2),(-2.094395102393,0.,2.094395102393,4.188790204786,
    6.28318530718,8.377580409573),(0.,12.),.UNSPECIFIED.) 
GEOMETRIC_REPRESENTATION_ITEM() RATIONAL_B_SPLINE_SURFACE((
    (1.,1.)
    ,(0.5,0.5)
    ,(1.,1.)
    ,(0.5,0.5)
    ,(1.,1.)
    ,(0.5,0.5)
,(1.,1.))) REPRESENTATION_ITEM('') SURFACE() );
#134 = CARTESIAN_POINT('',(2.186425790153,9.620273476671E-16,
    4.372851580305));
#135 = CARTESIAN_POINT('',(-10.93212895076,9.620273476671E-16,
    4.372851580305));
#136 = CARTESIAN_POINT('',(2.186425790153,7.574001111046,4.372851580305)
  );
#137 = CARTESIAN_POINT('',(-10.93212895076,7.574001111046,4.372851580305
    ));
#138 = CARTESIAN_POINT('',(2.186425790153,3.787000555523,-2.186425790153
    ));
#139 = CARTESIAN_POINT('',(-10.93212895076,3.787000555523,
    -2.186425790153));
#140 = CARTESIAN_POINT('',(2.186425790153,-8.530149571408E-16,
    -8.74570316061));
#141 = CARTESIAN_POINT('',(-10.93212895076,-8.530149571408E-16,
    -8.74570316061));
#142 = CARTESIAN_POINT('',(2.186425790153,-3.787000555523,
    -2.186425790153));
#143 = CARTESIAN_POINT('',(-10.93212895076,-3.787000555523,
    -2.186425790153));
#144 = CARTESIAN_POINT('',(2.186425790153,-7.574001111046,4.372851580305
    ));
#145 = CARTESIAN_POINT('',(-10.93212895076,-7.574001111046,
    4.372851580305));
#146 = CARTESIAN_POINT('',(2.186425790153,9.620273476671E-16,
    4.372851580305));
#147 = CARTESIAN_POINT('',(-10.93212895076,9.620273476671E-16,
    4.372851580305));
#148 = ADVANCED_FACE('',(#149,#163),#166,.F.);
#149 = FACE_BOUND('',#150,.F.);
#150 = EDGE_LOOP('',(#151));
#151 = ORIENTED_EDGE('',*,*,#152,.T.);
#152 = EDGE_CURVE('',#153,#153,#155,.T.);
#153 = VERTEX_POINT('',#154);
#154 = CARTESIAN_POINT('',(-10.93212895076,1.093212895076E-15,
    5.466064475381));
#155 = ( BOUNDED_CURVE() B_SPLINE_CURVE(2,(#156,#157,#158,#159,#160,#161
,#162),.UNSPECIFIED.,.T.,.F.) B_SPLINE_CURVE_WITH_KNOTS((1,2,2,2,2,1),(
    -2.094395102393,0.,2.094395102393,4.188790204786,6.28318530718,
8.377580409573),.UNSPECIFIED.) CURVE() GEOMETRIC_REPRESENTATION_ITEM() 
RATIONAL_B_SPLINE_CURVE((1.,0.5,1.,0.5,1.,0.5,1.)) REPRESENTATION_ITEM(
  '') );
#156 = CARTESIAN_POINT('',(-10.93212895076,1.202534184584E-15,
    5.466064475381));
#157 = CARTESIAN_POINT('',(-10.93212895076,-9.467501388808,
    5.466064475381));
#158 = CARTESIAN_POINT('',(-10.93212895076,-4.733750694404,
    -2.733032237691));
#159 = CARTESIAN_POINT('',(-10.93212895076,-3.74386804191E-15,
    -10.93212895076));
#160 = CARTESIAN_POINT('',(-10.93212895076,4.733750694404,
    -2.733032237691));
#161 = CARTESIAN_POINT('',(-10.93212895076,9.467501388808,5.466064475381
    ));
#162 = CARTESIAN_POINT('',(-10.93212895076,1.202534184584E-15,
    5.466064475381));
#163 = FACE_BOUND('',#164,.F.);
#164 = EDGE_LOOP('',(#165));
#165 = ORIENTED_EDGE('',*,*,#122,.F.);
#166 = B_SPLINE_SURFACE_WITH_KNOTS('',1,1,(
    (#167,#168)
    ,(#169,#170
    )),.UNSPECIFIED.,.F.,.F.,.F.,(2,2),(2,2),(-5.,5.),(-5.,5.),
  .PIECEWISE_BEZIER_KNOTS.);
#167 = CARTESIAN_POINT('',(-10.93212895076,5.466064475381,
    -5.466064475381));
#168 = CARTESIAN_POINT('',(-10.93212895076,-5.466064475381,
    -5.466064475381));
#169 = CARTESIAN_POINT('',(-10.93212895076,5.466064475381,5.466064475381
    ));
#170 = CARTESIAN_POINT('',(-10.93212895076,-5.466064475381,
    5.466064475381));
#171 = ADVANCED_FACE('',(#172),#182,.T.);
#172 = FACE_BOUND('',#173,.T.);
#173 = EDGE_LOOP('',(#174,#179,#180,#181));
#174 = ORIENTED_EDGE('',*,*,#175,.T.);
#175 = EDGE_CURVE('',#22,#153,#176,.T.);
#176 = B_SPLINE_CURVE_WITH_KNOTS('',1,(#177,#178),.UNSPECIFIED.,.F.,.F.,
  (2,2),(0.,10.),.PIECEWISE_BEZIER_KNOTS.);
#177 = CARTESIAN_POINT('',(0.,1.213466313535E-15,5.466064475381));
#178 = CARTESIAN_POINT('',(-10.93212895076,1.213466313535E-15,
    5.466064475381));
#179 = ORIENTED_EDGE('',*,*,#152,.T.);
#180 = ORIENTED_EDGE('',*,*,#175,.F.);
#181 = ORIENTED_EDGE('',*,*,#21,.F.);
#182 = ( BOUNDED_SURFACE() B_SPLINE_SURFACE(2,1,(
    (#183,#184)
    ,(#185,#186)
    ,(#187,#188)
    ,(#189,#190)
    ,(#191,#192)
    ,(#193,#194)
,(#195,#196
    )),.UNSPECIFIED.,.T.,.F.,.F.) B_SPLINE_SURFACE_WITH_KNOTS((1,2,2,2,2
    ,1),(2,2),(-2.094395102393,0.,2.094395102393,4.188790204786,
    6.28318530718,8.377580409573),(0.,10.),.UNSPECIFIED.) 
GEOMETRIC_REPRESENTATION_ITEM() RATIONAL_B_SPLINE_SURFACE((
    (1.,1.)
    ,(0.5,0.5)
    ,(1.,1.)
    ,(0.5,0.5)
    ,(1.,1.)
    ,(0.5,0.5)
,(1.,1.))) REPRESENTATION_ITEM('') SURFACE() );
#183 = CARTESIAN_POINT('',(0.,1.202534184584E-15,5.466064475381));
#184 = CARTESIAN_POINT('',(-10.93212895076,1.202534184584E-15,
    5.466064475381));
#185 = CARTESIAN_POINT('',(0.,9.467501388808,5.466064475381));
#186 = CARTESIAN_POINT('',(-10.93212895076,9.467501388808,5.466064475381
    ));
#187 = CARTESIAN_POINT('',(0.,4.733750694404,-2.733032237691));
#188 = CARTESIAN_POINT('',(-10.93212895076,4.733750694404,
    -2.733032237691));
#189 = CARTESIAN_POINT('',(0.,-1.066268696426E-15,-10.93212895076));
#190 = CARTESIAN_POINT('',(-10.93212895076,-1.066268696426E-15,
    -10.93212895076));
#191 = CARTESIAN_POINT('',(0.,-4.733750694404,-2.733032237691));
#192 = CARTESIAN_POINT('',(-10.93212895076,-4.733750694404,
    -2.733032237691));
#193 = CARTESIAN_POINT('',(0.,-9.467501388808,5.466064475381));
#194 = CARTESIAN_POINT('',(-10.93212895076,-9.467501388808,
    5.466064475381));
#195 = CARTESIAN_POINT('',(0.,1.202534184584E-15,5.466064475381));
#196 = CARTESIAN_POINT('',(-10.93212895076,1.202534184584E-15,
    5.466064475381));
#197 = ( GEOMETRIC_REPRESENTATION_CONTEXT(3) 
GLOBAL_UNCERTAINTY_ASSIGNED_CONTEXT((#201)) GLOBAL_UNIT_ASSIGNED_CONTEXT
((#198,#199,#200)) REPRESENTATION_CONTEXT('Context #1',
  '3D Context with UNIT and UNCERTAINTY') );
#198 = ( LENGTH_UNIT() NAMED_UNIT(*) SI_UNIT(.MILLI.,.METRE.) );
#199 = ( NAMED_UNIT(*) PLANE_ANGLE_UNIT() SI_UNIT($,.RADIAN.) );
#200 = ( NAMED_UNIT(*) SI_UNIT($,.STERADIAN.) SOLID_ANGLE_UNIT() );
#201 = UNCERTAINTY_MEASURE_WITH_UNIT(LENGTH_MEASURE(1.E-07),#198,
  'distance_accuracy_value','confusion accuracy');
#202 = PRODUCT_RELATED_PRODUCT_CATEGORY('part',$,(#7));
ENDSEC;
END-ISO-10303-21;
