ISO-10303-21;
HEADER;
FILE_DESCRIPTION(('FreeCAD Model'),'2;1');
FILE_NAME('Open CASCADE Shape Model','2025-05-09T04:30:41',('FreeCAD'),(
    'FreeCAD'),'Open CASCADE STEP processor 7.6','FreeCAD','Unknown');
FILE_SCHEMA(('AUTOMOTIVE_DESIGN { 1 0 10303 214 1 1 1 1 }'));
ENDSEC;
DATA;
#1 = APPLICATION_PROTOCOL_DEFINITION('international standard',
  'automotive_design',2000,#2);
#2 = APPLICATION_CONTEXT(
  'core data for automotive mechanical design processes');
#3 = SHAPE_DEFINITION_REPRESENTATION(#4,#10);
#4 = PRODUCT_DEFINITION_SHAPE('','',#5);
#5 = PRODUCT_DEFINITION('design','',#6,#9);
#6 = PRODUCT_DEFINITION_FORMATION('','',#7);
#7 = PRODUCT('Open CASCADE STEP translator 7.6 1',
  'Open CASCADE STEP translator 7.6 1','',(#8));
#8 = PRODUCT_CONTEXT('',#2,'mechanical');
#9 = PRODUCT_DEFINITION_CONTEXT('part definition',#2,'design');
#10 = SHAPE_REPRESENTATION('',(#11,#15,#163,#175),#187);
#11 = AXIS2_PLACEMENT_3D('',#12,#13,#14);
#12 = CARTESIAN_POINT('',(0.,0.,0.));
#13 = DIRECTION('',(0.,0.,1.));
#14 = DIRECTION('',(1.,0.,-0.));
#15 = MANIFOLD_SOLID_BREP('',#16);
#16 = CLOSED_SHELL('',(#17,#69,#137,#150));
#17 = ADVANCED_FACE('',(#18),#50,.F.);
#18 = FACE_BOUND('',#19,.F.);
#19 = EDGE_LOOP('',(#20,#29,#39,#40));
#20 = ORIENTED_EDGE('',*,*,#21,.T.);
#21 = EDGE_CURVE('',#22,#24,#26,.T.);
#22 = VERTEX_POINT('',#23);
#23 = CARTESIAN_POINT('',(22.118072828406,37.647783537712,
    4.610523760445E-15));
#24 = VERTEX_POINT('',#25);
#25 = CARTESIAN_POINT('',(0.,37.647783537712,4.610523760445E-15));
#26 = B_SPLINE_CURVE_WITH_KNOTS('',1,(#27,#28),.UNSPECIFIED.,.F.,.F.,(2,
    2),(-23.5,0.),.PIECEWISE_BEZIER_KNOTS.);
#27 = CARTESIAN_POINT('',(22.118072828406,37.647783537712,
    4.610523760445E-15));
#28 = CARTESIAN_POINT('',(0.,37.647783537712,4.610523760445E-15));
#29 = ORIENTED_EDGE('',*,*,#30,.F.);
#30 = EDGE_CURVE('',#24,#24,#31,.T.);
#31 = ( BOUNDED_CURVE() B_SPLINE_CURVE(2,(#32,#33,#34,#35,#36,#37,#38),
.UNSPECIFIED.,.T.,.F.) B_SPLINE_CURVE_WITH_KNOTS((3,2,2,3),(
    3.14159265359,5.235987755983,7.330382858376,9.424777960769),
.PIECEWISE_BEZIER_KNOTS.) CURVE() GEOMETRIC_REPRESENTATION_ITEM() 
RATIONAL_B_SPLINE_CURVE((1.,0.5,1.,0.5,1.,0.5,1.)) REPRESENTATION_ITEM(
  '') );
#32 = CARTESIAN_POINT('',(0.,37.647783537712,4.610523760445E-15));
#33 = CARTESIAN_POINT('',(0.,37.647783537712,-65.20787387967));
#34 = CARTESIAN_POINT('',(0.,-18.82389176885,-32.60393693983));
#35 = CARTESIAN_POINT('',(0.,-75.29556707542,-8.531799281726E-14));
#36 = CARTESIAN_POINT('',(0.,-18.82389176885,32.603936939836));
#37 = CARTESIAN_POINT('',(0.,37.647783537712,65.207873879672));
#38 = CARTESIAN_POINT('',(0.,37.647783537712,8.070746905681E-14));
#39 = ORIENTED_EDGE('',*,*,#21,.F.);
#40 = ORIENTED_EDGE('',*,*,#41,.T.);
#41 = EDGE_CURVE('',#22,#22,#42,.T.);
#42 = ( BOUNDED_CURVE() B_SPLINE_CURVE(2,(#43,#44,#45,#46,#47,#48,#49),
.UNSPECIFIED.,.T.,.F.) B_SPLINE_CURVE_WITH_KNOTS((3,2,2,3),(
    3.14159265359,5.235987755983,7.330382858376,9.424777960769),
.PIECEWISE_BEZIER_KNOTS.) CURVE() GEOMETRIC_REPRESENTATION_ITEM() 
RATIONAL_B_SPLINE_CURVE((1.,0.5,1.,0.5,1.,0.5,1.)) REPRESENTATION_ITEM(
  '') );
#43 = CARTESIAN_POINT('',(22.118072828406,37.647783537712,
    4.610523760445E-15));
#44 = CARTESIAN_POINT('',(22.118072828406,37.647783537712,
    -65.20787387967));
#45 = CARTESIAN_POINT('',(22.118072828406,-18.82389176885,
    -32.60393693983));
#46 = CARTESIAN_POINT('',(22.118072828406,-75.29556707542,
    -8.531799281726E-14));
#47 = CARTESIAN_POINT('',(22.118072828406,-18.82389176885,
    32.603936939836));
#48 = CARTESIAN_POINT('',(22.118072828406,37.647783537712,
    65.207873879672));
#49 = CARTESIAN_POINT('',(22.118072828406,37.647783537712,
    8.070746905681E-14));
#50 = ( BOUNDED_SURFACE() B_SPLINE_SURFACE(2,1,(
    (#51,#52)
    ,(#53,#54)
    ,(#55,#56)
    ,(#57,#58)
    ,(#59,#60)
    ,(#61,#62)
    ,(#63,#64)
    ,(#65,#66)
,(#67,#68
    )),.UNSPECIFIED.,.T.,.F.,.F.) B_SPLINE_SURFACE_WITH_KNOTS((3,2,2,2,3
    ),(2,2),(-3.14159265359,-2.094395102393,0.,2.094395102393,
    3.14159265359),(0.,23.5),.UNSPECIFIED.) 
GEOMETRIC_REPRESENTATION_ITEM() RATIONAL_B_SPLINE_SURFACE((
    (0.75,0.75)
    ,(0.75,0.75)
    ,(1.,1.)
    ,(0.5,0.5)
    ,(1.,1.)
    ,(0.5,0.5)
    ,(1.,1.)
    ,(0.75,0.75)
,(0.75,0.75))) REPRESENTATION_ITEM('') SURFACE() );
#51 = CARTESIAN_POINT('',(0.,37.647783537712,0.));
#52 = CARTESIAN_POINT('',(22.118072828406,37.647783537712,0.));
#53 = CARTESIAN_POINT('',(0.,37.647783537712,21.735957959891));
#54 = CARTESIAN_POINT('',(22.118072828406,37.647783537712,
    21.735957959891));
#55 = CARTESIAN_POINT('',(0.,18.823891768856,32.603936939836));
#56 = CARTESIAN_POINT('',(22.118072828406,18.823891768856,
    32.603936939836));
#57 = CARTESIAN_POINT('',(0.,-37.64778353771,65.207873879672));
#58 = CARTESIAN_POINT('',(22.118072828406,-37.64778353771,
    65.207873879672));
#59 = CARTESIAN_POINT('',(0.,-37.64778353771,0.));
#60 = CARTESIAN_POINT('',(22.118072828406,-37.64778353771,0.));
#61 = CARTESIAN_POINT('',(0.,-37.64778353771,-65.20787387967));
#62 = CARTESIAN_POINT('',(22.118072828406,-37.64778353771,
    -65.20787387967));
#63 = CARTESIAN_POINT('',(0.,18.823891768856,-32.60393693983));
#64 = CARTESIAN_POINT('',(22.118072828406,18.823891768856,
    -32.60393693983));
#65 = CARTESIAN_POINT('',(0.,37.647783537712,-21.73595795989));
#66 = CARTESIAN_POINT('',(22.118072828406,37.647783537712,
    -21.73595795989));
#67 = CARTESIAN_POINT('',(0.,37.647783537712,0.));
#68 = CARTESIAN_POINT('',(22.118072828406,37.647783537712,0.));
#69 = ADVANCED_FACE('',(#70),#118,.T.);
#70 = FACE_BOUND('',#71,.T.);
#71 = EDGE_LOOP('',(#72,#84,#92,#99,#109,#117));
#72 = ORIENTED_EDGE('',*,*,#73,.F.);
#73 = EDGE_CURVE('',#74,#76,#78,.T.);
#74 = VERTEX_POINT('',#75);
#75 = CARTESIAN_POINT('',(22.118072828406,42.353756479926,0.));
#76 = VERTEX_POINT('',#77);
#77 = CARTESIAN_POINT('',(22.118072828406,-42.35375647992,
    -5.186839230501E-15));
#78 = ( BOUNDED_CURVE() B_SPLINE_CURVE(2,(#79,#80,#81,#82,#83),
.UNSPECIFIED.,.F.,.F.) B_SPLINE_CURVE_WITH_KNOTS((3,2,3),(0.,
1.570796326795,3.14159265359),.PIECEWISE_BEZIER_KNOTS.) CURVE() 
GEOMETRIC_REPRESENTATION_ITEM() RATIONAL_B_SPLINE_CURVE((1.,
0.707106781187,1.,0.707106781187,1.)) REPRESENTATION_ITEM('') );
#79 = CARTESIAN_POINT('',(22.118072828406,42.353756479926,0.));
#80 = CARTESIAN_POINT('',(22.118072828406,42.353756479926,
    42.353756479926));
#81 = CARTESIAN_POINT('',(22.118072828406,2.59341961525E-15,
    42.353756479926));
#82 = CARTESIAN_POINT('',(22.118072828406,-42.35375647992,
    42.353756479926));
#83 = CARTESIAN_POINT('',(22.118072828406,-42.35375647992,
    5.186839230501E-15));
#84 = ORIENTED_EDGE('',*,*,#85,.F.);
#85 = EDGE_CURVE('',#76,#74,#86,.T.);
#86 = ( BOUNDED_CURVE() B_SPLINE_CURVE(2,(#87,#88,#89,#90,#91),
.UNSPECIFIED.,.F.,.F.) B_SPLINE_CURVE_WITH_KNOTS((3,2,3),(3.14159265359,
4.712388980385,6.28318530718),.PIECEWISE_BEZIER_KNOTS.) CURVE() 
GEOMETRIC_REPRESENTATION_ITEM() RATIONAL_B_SPLINE_CURVE((1.,
0.707106781187,1.,0.707106781187,1.)) REPRESENTATION_ITEM('') );
#87 = CARTESIAN_POINT('',(22.118072828406,-42.35375647992,
    5.186839230501E-15));
#88 = CARTESIAN_POINT('',(22.118072828406,-42.35375647992,
    -42.35375647992));
#89 = CARTESIAN_POINT('',(22.118072828406,-7.780258845751E-15,
    -42.35375647992));
#90 = CARTESIAN_POINT('',(22.118072828406,42.353756479926,
    -42.35375647992));
#91 = CARTESIAN_POINT('',(22.118072828406,42.353756479926,
    -1.0373678461E-14));
#92 = ORIENTED_EDGE('',*,*,#93,.T.);
#93 = EDGE_CURVE('',#76,#94,#96,.T.);
#94 = VERTEX_POINT('',#95);
#95 = CARTESIAN_POINT('',(0.,-42.35375647992,-5.186839230501E-15));
#96 = B_SPLINE_CURVE_WITH_KNOTS('',1,(#97,#98),.UNSPECIFIED.,.F.,.F.,(2,
    2),(-23.5,0.),.PIECEWISE_BEZIER_KNOTS.);
#97 = CARTESIAN_POINT('',(22.118072828406,-42.35375647992,
    -5.186839230501E-15));
#98 = CARTESIAN_POINT('',(0.,-42.35375647992,-5.186839230501E-15));
#99 = ORIENTED_EDGE('',*,*,#100,.T.);
#100 = EDGE_CURVE('',#94,#101,#103,.T.);
#101 = VERTEX_POINT('',#102);
#102 = CARTESIAN_POINT('',(0.,42.353756479926,0.));
#103 = ( BOUNDED_CURVE() B_SPLINE_CURVE(2,(#104,#105,#106,#107,#108),
.UNSPECIFIED.,.F.,.F.) B_SPLINE_CURVE_WITH_KNOTS((3,2,3),(3.14159265359,
4.712388980385,6.28318530718),.PIECEWISE_BEZIER_KNOTS.) CURVE() 
GEOMETRIC_REPRESENTATION_ITEM() RATIONAL_B_SPLINE_CURVE((1.,
0.707106781187,1.,0.707106781187,1.)) REPRESENTATION_ITEM('') );
#104 = CARTESIAN_POINT('',(0.,-42.35375647992,5.186839230501E-15));
#105 = CARTESIAN_POINT('',(0.,-42.35375647992,-42.35375647992));
#106 = CARTESIAN_POINT('',(0.,-7.780258845751E-15,-42.35375647992));
#107 = CARTESIAN_POINT('',(0.,42.353756479926,-42.35375647992));
#108 = CARTESIAN_POINT('',(0.,42.353756479926,-1.0373678461E-14));
#109 = ORIENTED_EDGE('',*,*,#110,.T.);
#110 = EDGE_CURVE('',#101,#94,#111,.T.);
#111 = ( BOUNDED_CURVE() B_SPLINE_CURVE(2,(#112,#113,#114,#115,#116),
.UNSPECIFIED.,.F.,.F.) B_SPLINE_CURVE_WITH_KNOTS((3,2,3),(0.,
1.570796326795,3.14159265359),.PIECEWISE_BEZIER_KNOTS.) CURVE() 
GEOMETRIC_REPRESENTATION_ITEM() RATIONAL_B_SPLINE_CURVE((1.,
0.707106781187,1.,0.707106781187,1.)) REPRESENTATION_ITEM('') );
#112 = CARTESIAN_POINT('',(0.,42.353756479926,0.));
#113 = CARTESIAN_POINT('',(0.,42.353756479926,42.353756479926));
#114 = CARTESIAN_POINT('',(0.,2.59341961525E-15,42.353756479926));
#115 = CARTESIAN_POINT('',(0.,-42.35375647992,42.353756479926));
#116 = CARTESIAN_POINT('',(0.,-42.35375647992,5.186839230501E-15));
#117 = ORIENTED_EDGE('',*,*,#93,.F.);
#118 = ( BOUNDED_SURFACE() B_SPLINE_SURFACE(2,1,(
    (#119,#120)
    ,(#121,#122)
    ,(#123,#124)
    ,(#125,#126)
    ,(#127,#128)
    ,(#129,#130)
    ,(#131,#132)
    ,(#133,#134)
,(#135,#136
    )),.UNSPECIFIED.,.T.,.F.,.F.) B_SPLINE_SURFACE_WITH_KNOTS((3,2,2,2,3
    ),(2,2),(-3.14159265359,-2.094395102393,0.,2.094395102393,
    3.14159265359),(0.,23.5),.UNSPECIFIED.) 
GEOMETRIC_REPRESENTATION_ITEM() RATIONAL_B_SPLINE_SURFACE((
    (0.75,0.75)
    ,(0.75,0.75)
    ,(1.,1.)
    ,(0.5,0.5)
    ,(1.,1.)
    ,(0.5,0.5)
    ,(1.,1.)
    ,(0.75,0.75)
,(0.75,0.75))) REPRESENTATION_ITEM('') SURFACE() );
#119 = CARTESIAN_POINT('',(0.,-42.35375647992,0.));
#120 = CARTESIAN_POINT('',(22.118072828406,-42.35375647992,0.));
#121 = CARTESIAN_POINT('',(0.,-42.35375647992,-24.45295270487));
#122 = CARTESIAN_POINT('',(22.118072828406,-42.35375647992,
    -24.45295270487));
#123 = CARTESIAN_POINT('',(0.,-21.17687823996,-36.67942905731));
#124 = CARTESIAN_POINT('',(22.118072828406,-21.17687823996,
    -36.67942905731));
#125 = CARTESIAN_POINT('',(0.,42.353756479926,-73.35885811463));
#126 = CARTESIAN_POINT('',(22.118072828406,42.353756479926,
    -73.35885811463));
#127 = CARTESIAN_POINT('',(0.,42.353756479926,0.));
#128 = CARTESIAN_POINT('',(22.118072828406,42.353756479926,0.));
#129 = CARTESIAN_POINT('',(0.,42.353756479926,73.358858114631));
#130 = CARTESIAN_POINT('',(22.118072828406,42.353756479926,
    73.358858114631));
#131 = CARTESIAN_POINT('',(0.,-21.17687823996,36.679429057316));
#132 = CARTESIAN_POINT('',(22.118072828406,-21.17687823996,
    36.679429057316));
#133 = CARTESIAN_POINT('',(0.,-42.35375647992,24.452952704877));
#134 = CARTESIAN_POINT('',(22.118072828406,-42.35375647992,
    24.452952704877));
#135 = CARTESIAN_POINT('',(0.,-42.35375647992,0.));
#136 = CARTESIAN_POINT('',(22.118072828406,-42.35375647992,0.));
#137 = ADVANCED_FACE('',(#138,#142),#145,.T.);
#138 = FACE_BOUND('',#139,.T.);
#139 = EDGE_LOOP('',(#140,#141));
#140 = ORIENTED_EDGE('',*,*,#73,.T.);
#141 = ORIENTED_EDGE('',*,*,#85,.T.);
#142 = FACE_BOUND('',#143,.T.);
#143 = EDGE_LOOP('',(#144));
#144 = ORIENTED_EDGE('',*,*,#41,.T.);
#145 = B_SPLINE_SURFACE_WITH_KNOTS('',1,1,(
    (#146,#147)
    ,(#148,#149
    )),.UNSPECIFIED.,.F.,.F.,.F.,(2,2),(2,2),(-45.,45.),(-45.,45.),
  .PIECEWISE_BEZIER_KNOTS.);
#146 = CARTESIAN_POINT('',(22.118072828406,-42.35375647992,
    42.353756479926));
#147 = CARTESIAN_POINT('',(22.118072828406,42.353756479926,
    42.353756479926));
#148 = CARTESIAN_POINT('',(22.118072828406,-42.35375647992,
    -42.35375647992));
#149 = CARTESIAN_POINT('',(22.118072828406,42.353756479926,
    -42.35375647992));
#150 = ADVANCED_FACE('',(#151,#155),#158,.F.);
#151 = FACE_BOUND('',#152,.T.);
#152 = EDGE_LOOP('',(#153,#154));
#153 = ORIENTED_EDGE('',*,*,#110,.F.);
#154 = ORIENTED_EDGE('',*,*,#100,.F.);
#155 = FACE_BOUND('',#156,.T.);
#156 = EDGE_LOOP('',(#157));
#157 = ORIENTED_EDGE('',*,*,#30,.F.);
#158 = B_SPLINE_SURFACE_WITH_KNOTS('',1,1,(
    (#159,#160)
    ,(#161,#162
    )),.UNSPECIFIED.,.F.,.F.,.F.,(2,2),(2,2),(-45.,45.),(-45.,45.),
  .PIECEWISE_BEZIER_KNOTS.);
#159 = CARTESIAN_POINT('',(0.,-42.35375647992,42.353756479926));
#160 = CARTESIAN_POINT('',(0.,42.353756479926,42.353756479926));
#161 = CARTESIAN_POINT('',(0.,-42.35375647992,-42.35375647992));
#162 = CARTESIAN_POINT('',(0.,42.353756479926,-42.35375647992));
#163 = GEOMETRIC_CURVE_SET('',(#164));
#164 = TRIMMED_CURVE('',#165,(#173,PARAMETER_VALUE(0.)),(#174,
    PARAMETER_VALUE(6.28318530718)),.T.,.PARAMETER.);
#165 = ( BOUNDED_CURVE() B_SPLINE_CURVE(2,(#166,#167,#168,#169,#170,#171
,#172),.UNSPECIFIED.,.T.,.F.) B_SPLINE_CURVE_WITH_KNOTS((1,2,2,2,2,1),(
    -2.094395102393,0.,2.094395102393,4.188790204786,6.28318530718,
8.377580409573),.UNSPECIFIED.) CURVE() GEOMETRIC_REPRESENTATION_ITEM() 
RATIONAL_B_SPLINE_CURVE((1.,0.5,1.,0.5,1.,0.5,1.)) REPRESENTATION_ITEM(
  '') );
#166 = CARTESIAN_POINT('',(0.,37.647783537712,0.));
#167 = CARTESIAN_POINT('',(0.,37.647783537712,65.207873879672));
#168 = CARTESIAN_POINT('',(0.,-18.82389176885,32.603936939836));
#169 = CARTESIAN_POINT('',(0.,-75.29556707542,9.22104752089E-15));
#170 = CARTESIAN_POINT('',(0.,-18.82389176885,-32.60393693983));
#171 = CARTESIAN_POINT('',(0.,37.647783537712,-65.20787387967));
#172 = CARTESIAN_POINT('',(0.,37.647783537712,0.));
#173 = CARTESIAN_POINT('',(0.,37.647783537712,0.));
#174 = CARTESIAN_POINT('',(0.,37.647783537712,0.));
#175 = GEOMETRIC_CURVE_SET('',(#176));
#176 = TRIMMED_CURVE('',#177,(#185,PARAMETER_VALUE(0.)),(#186,
    PARAMETER_VALUE(6.28318530718)),.T.,.PARAMETER.);
#177 = ( BOUNDED_CURVE() B_SPLINE_CURVE(2,(#178,#179,#180,#181,#182,#183
,#184),.UNSPECIFIED.,.T.,.F.) B_SPLINE_CURVE_WITH_KNOTS((1,2,2,2,2,1),(
    -2.094395102393,0.,2.094395102393,4.188790204786,6.28318530718,
8.377580409573),.UNSPECIFIED.) CURVE() GEOMETRIC_REPRESENTATION_ITEM() 
RATIONAL_B_SPLINE_CURVE((1.,0.5,1.,0.5,1.,0.5,1.)) REPRESENTATION_ITEM(
  '') );
#178 = CARTESIAN_POINT('',(0.,42.353756479926,0.));
#179 = CARTESIAN_POINT('',(0.,42.353756479926,73.358858114631));
#180 = CARTESIAN_POINT('',(0.,-21.17687823996,36.679429057316));
#181 = CARTESIAN_POINT('',(0.,-84.70751295985,1.0373678461E-14));
#182 = CARTESIAN_POINT('',(0.,-21.17687823996,-36.67942905731));
#183 = CARTESIAN_POINT('',(0.,42.353756479926,-73.35885811463));
#184 = CARTESIAN_POINT('',(0.,42.353756479926,0.));
#185 = CARTESIAN_POINT('',(0.,42.353756479926,0.));
#186 = CARTESIAN_POINT('',(0.,42.353756479926,0.));
#187 = ( GEOMETRIC_REPRESENTATION_CONTEXT(3) 
GLOBAL_UNCERTAINTY_ASSIGNED_CONTEXT((#191)) GLOBAL_UNIT_ASSIGNED_CONTEXT
((#188,#189,#190)) REPRESENTATION_CONTEXT('Context #1',
  '3D Context with UNIT and UNCERTAINTY') );
#188 = ( LENGTH_UNIT() NAMED_UNIT(*) SI_UNIT(.MILLI.,.METRE.) );
#189 = ( NAMED_UNIT(*) PLANE_ANGLE_UNIT() SI_UNIT($,.RADIAN.) );
#190 = ( NAMED_UNIT(*) SI_UNIT($,.STERADIAN.) SOLID_ANGLE_UNIT() );
#191 = UNCERTAINTY_MEASURE_WITH_UNIT(LENGTH_MEASURE(1.E-06),#188,
  'distance_accuracy_value','confusion accuracy');
#192 = PRODUCT_RELATED_PRODUCT_CATEGORY('part',$,(#7));
ENDSEC;
END-ISO-10303-21;
