ISO-10303-21;
HEADER;
FILE_DESCRIPTION(('FreeCAD Model'),'2;1');
FILE_NAME('Open CASCADE Shape Model','2025-05-08T02:27:02',('FreeCAD'),(
    'FreeCAD'),'Open CASCADE STEP processor 7.6','FreeCAD','Unknown');
FILE_SCHEMA(('AUTOMOTIVE_DESIGN { 1 0 10303 214 1 1 1 1 }'));
ENDSEC;
DATA;
#1 = APPLICATION_PROTOCOL_DEFINITION('international standard',
  'automotive_design',2000,#2);
#2 = APPLICATION_CONTEXT(
  'core data for automotive mechanical design processes');
#3 = SHAPE_DEFINITION_REPRESENTATION(#4,#10);
#4 = PRODUCT_DEFINITION_SHAPE('','',#5);
#5 = PRODUCT_DEFINITION('design','',#6,#9);
#6 = PRODUCT_DEFINITION_FORMATION('','',#7);
#7 = PRODUCT('Open CASCADE STEP translator 7.6 1',
  'Open CASCADE STEP translator 7.6 1','',(#8));
#8 = PRODUCT_CONTEXT('',#2,'mechanical');
#9 = PRODUCT_DEFINITION_CONTEXT('part definition',#2,'design');
#10 = SHAPE_REPRESENTATION('',(#11,#15,#145,#157),#169);
#11 = AXIS2_PLACEMENT_3D('',#12,#13,#14);
#12 = CARTESIAN_POINT('',(0.,0.,0.));
#13 = DIRECTION('',(0.,0.,1.));
#14 = DIRECTION('',(1.,0.,-0.));
#15 = MANIFOLD_SOLID_BREP('',#16);
#16 = CLOSED_SHELL('',(#17,#69,#121,#133));
#17 = ADVANCED_FACE('',(#18),#50,.F.);
#18 = FACE_BOUND('',#19,.F.);
#19 = EDGE_LOOP('',(#20,#29,#39,#40));
#20 = ORIENTED_EDGE('',*,*,#21,.T.);
#21 = EDGE_CURVE('',#22,#24,#26,.T.);
#22 = VERTEX_POINT('',#23);
#23 = CARTESIAN_POINT('',(11.09110864838,1.358269070523E-15,0.));
#24 = VERTEX_POINT('',#25);
#25 = CARTESIAN_POINT('',(11.09110864838,1.358269070523E-15,
    155.27552107732));
#26 = B_SPLINE_CURVE_WITH_KNOTS('',1,(#27,#28),.UNSPECIFIED.,.F.,.F.,(2,
    2),(0.,175.),.PIECEWISE_BEZIER_KNOTS.);
#27 = CARTESIAN_POINT('',(11.09110864838,1.358269070523E-15,0.));
#28 = CARTESIAN_POINT('',(11.09110864838,1.358269070523E-15,
    155.27552107732));
#29 = ORIENTED_EDGE('',*,*,#30,.T.);
#30 = EDGE_CURVE('',#24,#24,#31,.T.);
#31 = ( BOUNDED_CURVE() B_SPLINE_CURVE(2,(#32,#33,#34,#35,#36,#37,#38),
.UNSPECIFIED.,.T.,.F.) B_SPLINE_CURVE_WITH_KNOTS((3,2,2,3),(
    3.14159265359,5.235987755983,7.330382858376,9.424777960769),
.PIECEWISE_BEZIER_KNOTS.) CURVE() GEOMETRIC_REPRESENTATION_ITEM() 
RATIONAL_B_SPLINE_CURVE((1.,0.5,1.,0.5,1.,0.5,1.)) REPRESENTATION_ITEM(
  '') );
#32 = CARTESIAN_POINT('',(11.09110864838,1.358269070523E-15,
    155.27552107732));
#33 = CARTESIAN_POINT('',(11.09110864838,-19.21036369126,155.27552107732
    ));
#34 = CARTESIAN_POINT('',(-5.54555432419,-9.60518184563,155.27552107732)
  );
#35 = CARTESIAN_POINT('',(-22.18221729676,-2.513484298617E-14,
    155.27552107732));
#36 = CARTESIAN_POINT('',(-5.54555432419,9.60518184563,155.27552107732)
  );
#37 = CARTESIAN_POINT('',(11.09110864838,19.210363691261,155.27552107732
    ));
#38 = CARTESIAN_POINT('',(11.09110864838,2.377657391565E-14,
    155.27552107732));
#39 = ORIENTED_EDGE('',*,*,#21,.F.);
#40 = ORIENTED_EDGE('',*,*,#41,.T.);
#41 = EDGE_CURVE('',#22,#22,#42,.T.);
#42 = ( BOUNDED_CURVE() B_SPLINE_CURVE(2,(#43,#44,#45,#46,#47,#48,#49),
.UNSPECIFIED.,.T.,.F.) B_SPLINE_CURVE_WITH_KNOTS((3,2,2,3),(
    3.14159265359,5.235987755983,7.330382858376,9.424777960769),
.PIECEWISE_BEZIER_KNOTS.) CURVE() GEOMETRIC_REPRESENTATION_ITEM() 
RATIONAL_B_SPLINE_CURVE((1.,0.5,1.,0.5,1.,0.5,1.)) REPRESENTATION_ITEM(
  '') );
#43 = CARTESIAN_POINT('',(11.09110864838,-1.358269070523E-15,0.));
#44 = CARTESIAN_POINT('',(11.09110864838,19.210363691261,0.));
#45 = CARTESIAN_POINT('',(-5.54555432419,9.60518184563,0.));
#46 = CARTESIAN_POINT('',(-22.18221729676,2.513484298617E-14,0.));
#47 = CARTESIAN_POINT('',(-5.54555432419,-9.60518184563,0.));
#48 = CARTESIAN_POINT('',(11.09110864838,-19.21036369126,0.));
#49 = CARTESIAN_POINT('',(11.09110864838,-2.377657391565E-14,0.));
#50 = ( BOUNDED_SURFACE() B_SPLINE_SURFACE(2,1,(
    (#51,#52)
    ,(#53,#54)
    ,(#55,#56)
    ,(#57,#58)
    ,(#59,#60)
    ,(#61,#62)
    ,(#63,#64)
    ,(#65,#66)
,(#67,#68
    )),.UNSPECIFIED.,.T.,.F.,.F.) B_SPLINE_SURFACE_WITH_KNOTS((3,2,2,2,3
    ),(2,2),(3.14159265359,4.188790204786,6.28318530718,8.377580409573,
    9.424777960769),(0.,175.),.UNSPECIFIED.) 
GEOMETRIC_REPRESENTATION_ITEM() RATIONAL_B_SPLINE_SURFACE((
    (0.75,0.75)
    ,(0.75,0.75)
    ,(1.,1.)
    ,(0.5,0.5)
    ,(1.,1.)
    ,(0.5,0.5)
    ,(1.,1.)
    ,(0.75,0.75)
,(0.75,0.75))) REPRESENTATION_ITEM('') SURFACE() );
#51 = CARTESIAN_POINT('',(11.09110864838,-5.253804454422E-16,0.));
#52 = CARTESIAN_POINT('',(11.09110864838,-5.253804454422E-16,
    155.27552107732));
#53 = CARTESIAN_POINT('',(11.09110864838,6.403454563754,0.));
#54 = CARTESIAN_POINT('',(11.09110864838,6.403454563754,155.27552107732)
  );
#55 = CARTESIAN_POINT('',(5.54555432419,9.60518184563,0.));
#56 = CARTESIAN_POINT('',(5.54555432419,9.60518184563,155.27552107732));
#57 = CARTESIAN_POINT('',(-11.09110864838,19.210363691261,0.));
#58 = CARTESIAN_POINT('',(-11.09110864838,19.210363691261,
    155.27552107732));
#59 = CARTESIAN_POINT('',(-11.09110864838,0.,0.));
#60 = CARTESIAN_POINT('',(-11.09110864838,0.,155.27552107732));
#61 = CARTESIAN_POINT('',(-11.09110864838,-19.21036369126,0.));
#62 = CARTESIAN_POINT('',(-11.09110864838,-19.21036369126,
    155.27552107732));
#63 = CARTESIAN_POINT('',(5.54555432419,-9.60518184563,0.));
#64 = CARTESIAN_POINT('',(5.54555432419,-9.60518184563,155.27552107732)
  );
#65 = CARTESIAN_POINT('',(11.09110864838,-6.403454563754,0.));
#66 = CARTESIAN_POINT('',(11.09110864838,-6.403454563754,155.27552107732
    ));
#67 = CARTESIAN_POINT('',(11.09110864838,-5.253804454422E-16,0.));
#68 = CARTESIAN_POINT('',(11.09110864838,-5.253804454422E-16,
    155.27552107732));
#69 = ADVANCED_FACE('',(#70),#102,.T.);
#70 = FACE_BOUND('',#71,.T.);
#71 = EDGE_LOOP('',(#72,#84,#91,#101));
#72 = ORIENTED_EDGE('',*,*,#73,.T.);
#73 = EDGE_CURVE('',#74,#74,#76,.T.);
#74 = VERTEX_POINT('',#75);
#75 = CARTESIAN_POINT('',(21.29492860489,2.607876615405E-15,
    155.27552107732));
#76 = ( BOUNDED_CURVE() B_SPLINE_CURVE(2,(#77,#78,#79,#80,#81,#82,#83),
.UNSPECIFIED.,.T.,.F.) B_SPLINE_CURVE_WITH_KNOTS((3,2,2,3),(
    3.14159265359,5.235987755983,7.330382858376,9.424777960769),
.PIECEWISE_BEZIER_KNOTS.) CURVE() GEOMETRIC_REPRESENTATION_ITEM() 
RATIONAL_B_SPLINE_CURVE((1.,0.5,1.,0.5,1.,0.5,1.)) REPRESENTATION_ITEM(
  '') );
#77 = CARTESIAN_POINT('',(21.29492860489,2.607876615405E-15,
    155.27552107732));
#78 = CARTESIAN_POINT('',(21.29492860489,-36.88389828722,155.27552107732
    ));
#79 = CARTESIAN_POINT('',(-10.64746430244,-18.44194914361,
    155.27552107732));
#80 = CARTESIAN_POINT('',(-42.58985720977,-4.825889853346E-14,
    155.27552107732));
#81 = CARTESIAN_POINT('',(-10.64746430244,18.44194914361,155.27552107732
    ));
#82 = CARTESIAN_POINT('',(21.29492860489,36.883898287221,155.27552107732
    ));
#83 = CARTESIAN_POINT('',(21.29492860489,4.565102191805E-14,
    155.27552107732));
#84 = ORIENTED_EDGE('',*,*,#85,.T.);
#85 = EDGE_CURVE('',#74,#86,#88,.T.);
#86 = VERTEX_POINT('',#87);
#87 = CARTESIAN_POINT('',(21.29492860489,2.607876615405E-15,0.));
#88 = B_SPLINE_CURVE_WITH_KNOTS('',1,(#89,#90),.UNSPECIFIED.,.F.,.F.,(2,
    2),(-175.,0.),.PIECEWISE_BEZIER_KNOTS.);
#89 = CARTESIAN_POINT('',(21.29492860489,2.607876615405E-15,
    155.27552107732));
#90 = CARTESIAN_POINT('',(21.29492860489,2.607876615405E-15,0.));
#91 = ORIENTED_EDGE('',*,*,#92,.F.);
#92 = EDGE_CURVE('',#86,#86,#93,.T.);
#93 = ( BOUNDED_CURVE() B_SPLINE_CURVE(2,(#94,#95,#96,#97,#98,#99,#100),
.UNSPECIFIED.,.T.,.F.) B_SPLINE_CURVE_WITH_KNOTS((3,2,2,3),(
    3.14159265359,5.235987755983,7.330382858376,9.424777960769),
.PIECEWISE_BEZIER_KNOTS.) CURVE() GEOMETRIC_REPRESENTATION_ITEM() 
RATIONAL_B_SPLINE_CURVE((1.,0.5,1.,0.5,1.,0.5,1.)) REPRESENTATION_ITEM(
  '') );
#94 = CARTESIAN_POINT('',(21.29492860489,2.607876615405E-15,0.));
#95 = CARTESIAN_POINT('',(21.29492860489,-36.88389828722,0.));
#96 = CARTESIAN_POINT('',(-10.64746430244,-18.44194914361,0.));
#97 = CARTESIAN_POINT('',(-42.58985720977,-4.825889853346E-14,0.));
#98 = CARTESIAN_POINT('',(-10.64746430244,18.44194914361,0.));
#99 = CARTESIAN_POINT('',(21.29492860489,36.883898287221,0.));
#100 = CARTESIAN_POINT('',(21.29492860489,4.565102191805E-14,0.));
#101 = ORIENTED_EDGE('',*,*,#85,.F.);
#102 = ( BOUNDED_SURFACE() B_SPLINE_SURFACE(2,1,(
    (#103,#104)
    ,(#105,#106)
    ,(#107,#108)
    ,(#109,#110)
    ,(#111,#112)
    ,(#113,#114)
    ,(#115,#116)
    ,(#117,#118)
,(#119,#120
    )),.UNSPECIFIED.,.T.,.F.,.F.) B_SPLINE_SURFACE_WITH_KNOTS((3,2,2,2,3
    ),(2,2),(-3.14159265359,-2.094395102393,0.,2.094395102393,
    3.14159265359),(0.,175.),.UNSPECIFIED.) 
GEOMETRIC_REPRESENTATION_ITEM() RATIONAL_B_SPLINE_SURFACE((
    (0.75,0.75)
    ,(0.75,0.75)
    ,(1.,1.)
    ,(0.5,0.5)
    ,(1.,1.)
    ,(0.5,0.5)
    ,(1.,1.)
    ,(0.75,0.75)
,(0.75,0.75))) REPRESENTATION_ITEM('') SURFACE() );
#103 = CARTESIAN_POINT('',(21.29492860489,0.,0.));
#104 = CARTESIAN_POINT('',(21.29492860489,0.,155.27552107732));
#105 = CARTESIAN_POINT('',(21.29492860489,12.294632762407,0.));
#106 = CARTESIAN_POINT('',(21.29492860489,12.294632762407,
    155.27552107732));
#107 = CARTESIAN_POINT('',(10.647464302445,18.44194914361,0.));
#108 = CARTESIAN_POINT('',(10.647464302445,18.44194914361,
    155.27552107732));
#109 = CARTESIAN_POINT('',(-21.29492860489,36.883898287221,0.));
#110 = CARTESIAN_POINT('',(-21.29492860489,36.883898287221,
    155.27552107732));
#111 = CARTESIAN_POINT('',(-21.29492860489,0.,0.));
#112 = CARTESIAN_POINT('',(-21.29492860489,0.,155.27552107732));
#113 = CARTESIAN_POINT('',(-21.29492860489,-36.88389828722,0.));
#114 = CARTESIAN_POINT('',(-21.29492860489,-36.88389828722,
    155.27552107732));
#115 = CARTESIAN_POINT('',(10.647464302445,-18.44194914361,0.));
#116 = CARTESIAN_POINT('',(10.647464302445,-18.44194914361,
    155.27552107732));
#117 = CARTESIAN_POINT('',(21.29492860489,-12.2946327624,0.));
#118 = CARTESIAN_POINT('',(21.29492860489,-12.2946327624,155.27552107732
    ));
#119 = CARTESIAN_POINT('',(21.29492860489,0.,0.));
#120 = CARTESIAN_POINT('',(21.29492860489,0.,155.27552107732));
#121 = ADVANCED_FACE('',(#122,#125),#128,.F.);
#122 = FACE_BOUND('',#123,.T.);
#123 = EDGE_LOOP('',(#124));
#124 = ORIENTED_EDGE('',*,*,#73,.F.);
#125 = FACE_BOUND('',#126,.T.);
#126 = EDGE_LOOP('',(#127));
#127 = ORIENTED_EDGE('',*,*,#30,.T.);
#128 = B_SPLINE_SURFACE_WITH_KNOTS('',1,1,(
    (#129,#130)
    ,(#131,#132
    )),.UNSPECIFIED.,.F.,.F.,.F.,(2,2),(2,2),(-24.,24.),(-24.,24.),
  .PIECEWISE_BEZIER_KNOTS.);
#129 = CARTESIAN_POINT('',(21.29492860489,-21.29492860489,
    155.27552107732));
#130 = CARTESIAN_POINT('',(21.29492860489,21.29492860489,155.27552107732
    ));
#131 = CARTESIAN_POINT('',(-21.29492860489,-21.29492860489,
    155.27552107732));
#132 = CARTESIAN_POINT('',(-21.29492860489,21.29492860489,
    155.27552107732));
#133 = ADVANCED_FACE('',(#134,#137),#140,.T.);
#134 = FACE_BOUND('',#135,.T.);
#135 = EDGE_LOOP('',(#136));
#136 = ORIENTED_EDGE('',*,*,#92,.T.);
#137 = FACE_BOUND('',#138,.T.);
#138 = EDGE_LOOP('',(#139));
#139 = ORIENTED_EDGE('',*,*,#41,.T.);
#140 = B_SPLINE_SURFACE_WITH_KNOTS('',1,1,(
    (#141,#142)
    ,(#143,#144
    )),.UNSPECIFIED.,.F.,.F.,.F.,(2,2),(2,2),(-24.,24.),(-24.,24.),
  .PIECEWISE_BEZIER_KNOTS.);
#141 = CARTESIAN_POINT('',(21.29492860489,-21.29492860489,0.));
#142 = CARTESIAN_POINT('',(21.29492860489,21.29492860489,0.));
#143 = CARTESIAN_POINT('',(-21.29492860489,-21.29492860489,0.));
#144 = CARTESIAN_POINT('',(-21.29492860489,21.29492860489,0.));
#145 = GEOMETRIC_CURVE_SET('',(#146));
#146 = TRIMMED_CURVE('',#147,(#155,PARAMETER_VALUE(0.)),(#156,
    PARAMETER_VALUE(6.28318530718)),.T.,.PARAMETER.);
#147 = ( BOUNDED_CURVE() B_SPLINE_CURVE(2,(#148,#149,#150,#151,#152,#153
,#154),.UNSPECIFIED.,.T.,.F.) B_SPLINE_CURVE_WITH_KNOTS((1,2,2,2,2,1),(
    -2.094395102393,0.,2.094395102393,4.188790204786,6.28318530718,
8.377580409573),.UNSPECIFIED.) CURVE() GEOMETRIC_REPRESENTATION_ITEM() 
RATIONAL_B_SPLINE_CURVE((1.,0.5,1.,0.5,1.,0.5,1.)) REPRESENTATION_ITEM(
  '') );
#148 = CARTESIAN_POINT('',(21.29492860489,0.,0.));
#149 = CARTESIAN_POINT('',(21.29492860489,36.883898287221,0.));
#150 = CARTESIAN_POINT('',(-10.64746430244,18.44194914361,0.));
#151 = CARTESIAN_POINT('',(-42.58985720977,5.21575323081E-15,0.));
#152 = CARTESIAN_POINT('',(-10.64746430244,-18.44194914361,0.));
#153 = CARTESIAN_POINT('',(21.29492860489,-36.88389828722,0.));
#154 = CARTESIAN_POINT('',(21.29492860489,0.,0.));
#155 = CARTESIAN_POINT('',(21.29492860489,0.,0.));
#156 = CARTESIAN_POINT('',(21.29492860489,0.,0.));
#157 = GEOMETRIC_CURVE_SET('',(#158));
#158 = TRIMMED_CURVE('',#159,(#167,PARAMETER_VALUE(0.)),(#168,
    PARAMETER_VALUE(6.28318530718)),.T.,.PARAMETER.);
#159 = ( BOUNDED_CURVE() B_SPLINE_CURVE(2,(#160,#161,#162,#163,#164,#165
,#166),.UNSPECIFIED.,.T.,.F.) B_SPLINE_CURVE_WITH_KNOTS((1,2,2,2,2,1),(
    -2.094395102393,0.,2.094395102393,4.188790204786,6.28318530718,
8.377580409573),.UNSPECIFIED.) CURVE() GEOMETRIC_REPRESENTATION_ITEM() 
RATIONAL_B_SPLINE_CURVE((1.,0.5,1.,0.5,1.,0.5,1.)) REPRESENTATION_ITEM(
  '') );
#160 = CARTESIAN_POINT('',(11.09110864838,0.,0.));
#161 = CARTESIAN_POINT('',(11.09110864838,19.210363691261,0.));
#162 = CARTESIAN_POINT('',(-5.54555432419,9.60518184563,0.));
#163 = CARTESIAN_POINT('',(-22.18221729676,2.716538141047E-15,0.));
#164 = CARTESIAN_POINT('',(-5.54555432419,-9.60518184563,0.));
#165 = CARTESIAN_POINT('',(11.09110864838,-19.21036369126,0.));
#166 = CARTESIAN_POINT('',(11.09110864838,0.,0.));
#167 = CARTESIAN_POINT('',(11.09110864838,0.,0.));
#168 = CARTESIAN_POINT('',(11.09110864838,0.,0.));
#169 = ( GEOMETRIC_REPRESENTATION_CONTEXT(3) 
GLOBAL_UNCERTAINTY_ASSIGNED_CONTEXT((#173)) GLOBAL_UNIT_ASSIGNED_CONTEXT
((#170,#171,#172)) REPRESENTATION_CONTEXT('Context #1',
  '3D Context with UNIT and UNCERTAINTY') );
#170 = ( LENGTH_UNIT() NAMED_UNIT(*) SI_UNIT(.MILLI.,.METRE.) );
#171 = ( NAMED_UNIT(*) PLANE_ANGLE_UNIT() SI_UNIT($,.RADIAN.) );
#172 = ( NAMED_UNIT(*) SI_UNIT($,.STERADIAN.) SOLID_ANGLE_UNIT() );
#173 = UNCERTAINTY_MEASURE_WITH_UNIT(LENGTH_MEASURE(1.E-07),#170,
  'distance_accuracy_value','confusion accuracy');
#174 = PRODUCT_RELATED_PRODUCT_CATEGORY('part',$,(#7));
ENDSEC;
END-ISO-10303-21;
