ISO-10303-21;
HEADER;
FILE_DESCRIPTION(('FreeCAD Model'),'2;1');
FILE_NAME('Open CASCADE Shape Model','2025-05-08T00:48:47',('FreeCAD'),(
    'FreeCAD'),'Open CASCADE STEP processor 7.6','FreeCAD','Unknown');
FILE_SCHEMA(('AUTOMOTIVE_DESIGN { 1 0 10303 214 1 1 1 1 }'));
ENDSEC;
DATA;
#1 = APPLICATION_PROTOCOL_DEFINITION('international standard',
  'automotive_design',2000,#2);
#2 = APPLICATION_CONTEXT(
  'core data for automotive mechanical design processes');
#3 = SHAPE_DEFINITION_REPRESENTATION(#4,#10);
#4 = PRODUCT_DEFINITION_SHAPE('','',#5);
#5 = PRODUCT_DEFINITION('design','',#6,#9);
#6 = PRODUCT_DEFINITION_FORMATION('','',#7);
#7 = PRODUCT('Open CASCADE STEP translator 7.6 1',
  'Open CASCADE STEP translator 7.6 1','',(#8));
#8 = PRODUCT_CONTEXT('',#2,'mechanical');
#9 = PRODUCT_DEFINITION_CONTEXT('part definition',#2,'design');
#10 = ADVANCED_BREP_SHAPE_REPRESENTATION('',(#11,#15),#209);
#11 = AXIS2_PLACEMENT_3D('',#12,#13,#14);
#12 = CARTESIAN_POINT('',(0.,0.,0.));
#13 = DIRECTION('',(0.,0.,1.));
#14 = DIRECTION('',(1.,0.,-0.));
#15 = MANIFOLD_SOLID_BREP('',#16);
#16 = CLOSED_SHELL('',(#17,#51,#85,#111,#148,#197));
#17 = ADVANCED_FACE('',(#18,#32),#46,.T.);
#18 = FACE_BOUND('',#19,.T.);
#19 = EDGE_LOOP('',(#20));
#20 = ORIENTED_EDGE('',*,*,#21,.F.);
#21 = EDGE_CURVE('',#22,#22,#24,.T.);
#22 = VERTEX_POINT('',#23);
#23 = CARTESIAN_POINT('',(-2.357144204426E-14,-7.952144354969E-15,
    129.86837283215));
#24 = ( BOUNDED_CURVE() B_SPLINE_CURVE(2,(#25,#26,#27,#28,#29,#30,#31),
.UNSPECIFIED.,.T.,.F.) B_SPLINE_CURVE_WITH_KNOTS((1,2,2,2,2,1),(
    -2.094395102393,0.,2.094395102393,4.188790204786,6.28318530718,
8.377580409573),.UNSPECIFIED.) CURVE() GEOMETRIC_REPRESENTATION_ITEM() 
RATIONAL_B_SPLINE_CURVE((1.,0.5,1.,0.5,1.,0.5,1.)) REPRESENTATION_ITEM(
  '') );
#25 = CARTESIAN_POINT('',(-2.357144204426E-14,-7.952144354969E-15,
    129.86837283215));
#26 = CARTESIAN_POINT('',(-2.357144204426E-14,224.93862004158,
    129.86837283215));
#27 = CARTESIAN_POINT('',(2.849910206494E-16,112.46931002079,
    -64.93418641607));
#28 = CARTESIAN_POINT('',(2.414142408556E-14,4.771286612981E-14,
    -259.7367456643));
#29 = CARTESIAN_POINT('',(2.849910206494E-16,-112.4693100207,
    -64.93418641607));
#30 = CARTESIAN_POINT('',(-2.357144204426E-14,-224.9386200415,
    129.86837283215));
#31 = CARTESIAN_POINT('',(-2.357144204426E-14,-7.952144354969E-15,
    129.86837283215));
#32 = FACE_BOUND('',#33,.T.);
#33 = EDGE_LOOP('',(#34));
#34 = ORIENTED_EDGE('',*,*,#35,.T.);
#35 = EDGE_CURVE('',#36,#36,#38,.T.);
#36 = VERTEX_POINT('',#37);
#37 = CARTESIAN_POINT('',(7.38216231367E-15,-93.50522843915,
    -1.717663180673E-14));
#38 = ( BOUNDED_CURVE() B_SPLINE_CURVE(2,(#39,#40,#41,#42,#43,#44,#45),
.UNSPECIFIED.,.T.,.F.) B_SPLINE_CURVE_WITH_KNOTS((1,2,2,2,2,1),(
    -2.094395102393,0.,2.094395102393,4.188790204786,6.28318530718,
8.377580409573),.UNSPECIFIED.) CURVE() GEOMETRIC_REPRESENTATION_ITEM() 
RATIONAL_B_SPLINE_CURVE((1.,0.5,1.,0.5,1.,0.5,1.)) REPRESENTATION_ITEM(
  '') );
#39 = CARTESIAN_POINT('',(-7.667153334319E-15,-93.50522843915,
    -5.725543935577E-15));
#40 = CARTESIAN_POINT('',(-2.750101932909E-14,-93.50522843915,
    161.95580642994));
#41 = CARTESIAN_POINT('',(-1.758408633171E-14,46.752614219575,
    80.977903214971));
#42 = CARTESIAN_POINT('',(-7.667153334319E-15,187.0104568783,
    3.435326361346E-14));
#43 = CARTESIAN_POINT('',(2.249779663069E-15,46.752614219575,
    -80.97790321497));
#44 = CARTESIAN_POINT('',(1.216671266046E-14,-93.50522843915,
    -161.9558064299));
#45 = CARTESIAN_POINT('',(-7.667153334319E-15,-93.50522843915,
    -5.725543935577E-15));
#46 = B_SPLINE_SURFACE_WITH_KNOTS('',1,1,(
    (#47,#48)
    ,(#49,#50
    )),.UNSPECIFIED.,.F.,.F.,.F.,(2,2),(2,2),(-125.,125.),(-125.,125.),
  .PIECEWISE_BEZIER_KNOTS.);
#47 = CARTESIAN_POINT('',(8.237135375618E-15,129.86837283215,
    -129.8683728321));
#48 = CARTESIAN_POINT('',(8.237135375618E-15,-129.8683728321,
    -129.8683728321));
#49 = CARTESIAN_POINT('',(-2.357144204426E-14,129.86837283215,
    129.86837283215));
#50 = CARTESIAN_POINT('',(-2.357144204426E-14,-129.8683728321,
    129.86837283215));
#51 = ADVANCED_FACE('',(#52,#66),#80,.T.);
#52 = FACE_BOUND('',#53,.T.);
#53 = EDGE_LOOP('',(#54));
#54 = ORIENTED_EDGE('',*,*,#55,.T.);
#55 = EDGE_CURVE('',#56,#56,#58,.T.);
#56 = VERTEX_POINT('',#57);
#57 = CARTESIAN_POINT('',(-17.66209870517,-6.290332919075E-15,
    102.72893251269));
#58 = ( BOUNDED_CURVE() B_SPLINE_CURVE(2,(#59,#60,#61,#62,#63,#64,#65),
.UNSPECIFIED.,.T.,.F.) B_SPLINE_CURVE_WITH_KNOTS((1,2,2,2,2,1),(
    -2.094395102393,0.,2.094395102393,4.188790204786,6.28318530718,
8.377580409573),.UNSPECIFIED.) CURVE() GEOMETRIC_REPRESENTATION_ITEM() 
RATIONAL_B_SPLINE_CURVE((1.,0.5,1.,0.5,1.,0.5,1.)) REPRESENTATION_ITEM(
  '') );
#59 = CARTESIAN_POINT('',(-17.66209870517,-6.290332919075E-15,
    102.72893251269));
#60 = CARTESIAN_POINT('',(-17.66209870517,177.93173051929,
    102.72893251269));
#61 = CARTESIAN_POINT('',(-17.66209870517,88.96586525965,-51.36446625634
    ));
#62 = CARTESIAN_POINT('',(-17.66209870517,3.774199751445E-14,
    -205.4578650253));
#63 = CARTESIAN_POINT('',(-17.66209870517,-88.96586525965,
    -51.36446625634));
#64 = CARTESIAN_POINT('',(-17.66209870517,-177.9317305192,
    102.72893251269));
#65 = CARTESIAN_POINT('',(-17.66209870517,-6.290332919075E-15,
    102.72893251269));
#66 = FACE_BOUND('',#67,.T.);
#67 = EDGE_LOOP('',(#68));
#68 = ORIENTED_EDGE('',*,*,#69,.F.);
#69 = EDGE_CURVE('',#70,#70,#72,.T.);
#70 = VERTEX_POINT('',#71);
#71 = CARTESIAN_POINT('',(-17.66209870517,-93.50522843915,
    -1.933961507128E-14));
#72 = ( BOUNDED_CURVE() B_SPLINE_CURVE(2,(#73,#74,#75,#76,#77,#78,#79),
.UNSPECIFIED.,.T.,.F.) B_SPLINE_CURVE_WITH_KNOTS((1,2,2,2,2,1),(
    -2.094395102393,0.,2.094395102393,4.188790204786,6.28318530718,
8.377580409573),.UNSPECIFIED.) CURVE() GEOMETRIC_REPRESENTATION_ITEM() 
RATIONAL_B_SPLINE_CURVE((1.,0.5,1.,0.5,1.,0.5,1.)) REPRESENTATION_ITEM(
  '') );
#73 = CARTESIAN_POINT('',(-17.66209870517,-93.50522843915,
    -7.888527200129E-15));
#74 = CARTESIAN_POINT('',(-17.66209870517,-93.50522843915,
    161.95580642994));
#75 = CARTESIAN_POINT('',(-17.66209870517,46.752614219575,
    80.977903214971));
#76 = CARTESIAN_POINT('',(-17.66209870517,187.0104568783,
    3.219028034891E-14));
#77 = CARTESIAN_POINT('',(-17.66209870517,46.752614219575,
    -80.97790321497));
#78 = CARTESIAN_POINT('',(-17.66209870517,-93.50522843915,
    -161.9558064299));
#79 = CARTESIAN_POINT('',(-17.66209870517,-93.50522843915,
    -7.888527200129E-15));
#80 = B_SPLINE_SURFACE_WITH_KNOTS('',1,1,(
    (#81,#82)
    ,(#83,#84
    )),.UNSPECIFIED.,.F.,.F.,.F.,(2,2),(2,2),(-98.87793528208,
    98.87793528208),(-98.87793528208,98.87793528208),
  .PIECEWISE_BEZIER_KNOTS.);
#81 = CARTESIAN_POINT('',(-17.66209870517,-102.7289325126,
    -102.7289325126));
#82 = CARTESIAN_POINT('',(-17.66209870517,102.72893251269,
    -102.7289325126));
#83 = CARTESIAN_POINT('',(-17.66209870517,-102.7289325126,
    102.72893251269));
#84 = CARTESIAN_POINT('',(-17.66209870517,102.72893251269,
    102.72893251269));
#85 = ADVANCED_FACE('',(#86),#96,.F.);
#86 = FACE_BOUND('',#87,.F.);
#87 = EDGE_LOOP('',(#88,#89,#94,#95));
#88 = ORIENTED_EDGE('',*,*,#35,.T.);
#89 = ORIENTED_EDGE('',*,*,#90,.T.);
#90 = EDGE_CURVE('',#36,#70,#91,.T.);
#91 = B_SPLINE_CURVE_WITH_KNOTS('',1,(#92,#93),.UNSPECIFIED.,.F.,.F.,(2,
    2),(1.448516228374E-14,17.),.PIECEWISE_BEZIER_KNOTS.);
#92 = CARTESIAN_POINT('',(-7.667153334319E-15,-93.50522843915,
    -5.725543935577E-15));
#93 = CARTESIAN_POINT('',(-17.66209870517,-93.50522843915,
    -7.888527200129E-15));
#94 = ORIENTED_EDGE('',*,*,#69,.F.);
#95 = ORIENTED_EDGE('',*,*,#90,.F.);
#96 = ( BOUNDED_SURFACE() B_SPLINE_SURFACE(2,1,(
    (#97,#98)
    ,(#99,#100)
    ,(#101,#102)
    ,(#103,#104)
    ,(#105,#106)
    ,(#107,#108)
,(#109,#110
    )),.UNSPECIFIED.,.T.,.F.,.F.) B_SPLINE_SURFACE_WITH_KNOTS((1,2,2,2,2
    ,1),(2,2),(-2.094395102393,0.,2.094395102393,4.188790204786,
    6.28318530718,8.377580409573),(1.448516228374E-14,17.),
.UNSPECIFIED.) GEOMETRIC_REPRESENTATION_ITEM() RATIONAL_B_SPLINE_SURFACE
((
    (1.,1.)
    ,(0.5,0.5)
    ,(1.,1.)
    ,(0.5,0.5)
    ,(1.,1.)
    ,(0.5,0.5)
,(1.,1.))) REPRESENTATION_ITEM('') SURFACE() );
#97 = CARTESIAN_POINT('',(-7.667153334319E-15,-93.50522843915,
    -5.725543935577E-15));
#98 = CARTESIAN_POINT('',(-17.66209870517,-93.50522843915,
    -7.888527200129E-15));
#99 = CARTESIAN_POINT('',(-2.750101932909E-14,-93.50522843915,
    161.95580642994));
#100 = CARTESIAN_POINT('',(-17.66209870517,-93.50522843915,
    161.95580642994));
#101 = CARTESIAN_POINT('',(-1.758408633171E-14,46.752614219575,
    80.977903214971));
#102 = CARTESIAN_POINT('',(-17.66209870517,46.752614219575,
    80.977903214971));
#103 = CARTESIAN_POINT('',(-7.667153334319E-15,187.0104568783,
    3.435326361346E-14));
#104 = CARTESIAN_POINT('',(-17.66209870517,187.0104568783,
    3.219028034891E-14));
#105 = CARTESIAN_POINT('',(2.249779663069E-15,46.752614219575,
    -80.97790321497));
#106 = CARTESIAN_POINT('',(-17.66209870517,46.752614219575,
    -80.97790321497));
#107 = CARTESIAN_POINT('',(1.216671266046E-14,-93.50522843915,
    -161.9558064299));
#108 = CARTESIAN_POINT('',(-17.66209870517,-93.50522843915,
    -161.9558064299));
#109 = CARTESIAN_POINT('',(-7.667153334319E-15,-93.50522843915,
    -5.725543935577E-15));
#110 = CARTESIAN_POINT('',(-17.66209870517,-93.50522843915,
    -7.888527200129E-15));
#111 = ADVANCED_FACE('',(#112),#133,.T.);
#112 = FACE_BOUND('',#113,.T.);
#113 = EDGE_LOOP('',(#114,#115,#122,#132));
#114 = ORIENTED_EDGE('',*,*,#21,.T.);
#115 = ORIENTED_EDGE('',*,*,#116,.T.);
#116 = EDGE_CURVE('',#22,#117,#119,.T.);
#117 = VERTEX_POINT('',#118);
#118 = CARTESIAN_POINT('',(-17.66209870517,-7.952144354969E-15,
    129.86837283215));
#119 = B_SPLINE_CURVE_WITH_KNOTS('',1,(#120,#121),.UNSPECIFIED.,.F.,.F.,
  (2,2),(0.,17.),.PIECEWISE_BEZIER_KNOTS.);
#120 = CARTESIAN_POINT('',(-2.357144204426E-14,-7.952144354969E-15,
    129.86837283215));
#121 = CARTESIAN_POINT('',(-17.66209870517,-7.952144354969E-15,
    129.86837283215));
#122 = ORIENTED_EDGE('',*,*,#123,.F.);
#123 = EDGE_CURVE('',#117,#117,#124,.T.);
#124 = ( BOUNDED_CURVE() B_SPLINE_CURVE(2,(#125,#126,#127,#128,#129,#130
,#131),.UNSPECIFIED.,.T.,.F.) B_SPLINE_CURVE_WITH_KNOTS((1,2,2,2,2,1),(
    -2.094395102393,0.,2.094395102393,4.188790204786,6.28318530718,
8.377580409573),.UNSPECIFIED.) CURVE() GEOMETRIC_REPRESENTATION_ITEM() 
RATIONAL_B_SPLINE_CURVE((1.,0.5,1.,0.5,1.,0.5,1.)) REPRESENTATION_ITEM(
  '') );
#125 = CARTESIAN_POINT('',(-17.66209870517,-7.952144354969E-15,
    129.86837283215));
#126 = CARTESIAN_POINT('',(-17.66209870517,224.93862004158,
    129.86837283215));
#127 = CARTESIAN_POINT('',(-17.66209870517,112.46931002079,
    -64.93418641607));
#128 = CARTESIAN_POINT('',(-17.66209870517,4.771286612981E-14,
    -259.7367456643));
#129 = CARTESIAN_POINT('',(-17.66209870517,-112.4693100207,
    -64.93418641607));
#130 = CARTESIAN_POINT('',(-17.66209870517,-224.9386200415,
    129.86837283215));
#131 = CARTESIAN_POINT('',(-17.66209870517,-7.952144354969E-15,
    129.86837283215));
#132 = ORIENTED_EDGE('',*,*,#116,.F.);
#133 = ( BOUNDED_SURFACE() B_SPLINE_SURFACE(2,1,(
    (#134,#135)
    ,(#136,#137)
    ,(#138,#139)
    ,(#140,#141)
    ,(#142,#143)
    ,(#144,#145)
,(#146,#147
    )),.UNSPECIFIED.,.T.,.F.,.F.) B_SPLINE_SURFACE_WITH_KNOTS((1,2,2,2,2
    ,1),(2,2),(-2.094395102393,0.,2.094395102393,4.188790204786,
    6.28318530718,8.377580409573),(0.,17.),.UNSPECIFIED.) 
GEOMETRIC_REPRESENTATION_ITEM() RATIONAL_B_SPLINE_SURFACE((
    (1.,1.)
    ,(0.5,0.5)
    ,(1.,1.)
    ,(0.5,0.5)
    ,(1.,1.)
    ,(0.5,0.5)
,(1.,1.))) REPRESENTATION_ITEM('') SURFACE() );
#134 = CARTESIAN_POINT('',(-2.357144204426E-14,-7.952144354969E-15,
    129.86837283215));
#135 = CARTESIAN_POINT('',(-17.66209870517,-7.952144354969E-15,
    129.86837283215));
#136 = CARTESIAN_POINT('',(-2.357144204426E-14,224.93862004158,
    129.86837283215));
#137 = CARTESIAN_POINT('',(-17.66209870517,224.93862004158,
    129.86837283215));
#138 = CARTESIAN_POINT('',(2.849910206494E-16,112.46931002079,
    -64.93418641607));
#139 = CARTESIAN_POINT('',(-17.66209870517,112.46931002079,
    -64.93418641607));
#140 = CARTESIAN_POINT('',(2.414142408556E-14,4.771286612981E-14,
    -259.7367456643));
#141 = CARTESIAN_POINT('',(-17.66209870517,4.771286612981E-14,
    -259.7367456643));
#142 = CARTESIAN_POINT('',(2.849910206494E-16,-112.4693100207,
    -64.93418641607));
#143 = CARTESIAN_POINT('',(-17.66209870517,-112.4693100207,
    -64.93418641607));
#144 = CARTESIAN_POINT('',(-2.357144204426E-14,-224.9386200415,
    129.86837283215));
#145 = CARTESIAN_POINT('',(-17.66209870517,-224.9386200415,
    129.86837283215));
#146 = CARTESIAN_POINT('',(-2.357144204426E-14,-7.952144354969E-15,
    129.86837283215));
#147 = CARTESIAN_POINT('',(-17.66209870517,-7.952144354969E-15,
    129.86837283215));
#148 = ADVANCED_FACE('',(#149),#175,.F.);
#149 = FACE_BOUND('',#150,.F.);
#150 = EDGE_LOOP('',(#151,#163,#173,#174));
#151 = ORIENTED_EDGE('',*,*,#152,.F.);
#152 = EDGE_CURVE('',#153,#153,#155,.T.);
#153 = VERTEX_POINT('',#154);
#154 = CARTESIAN_POINT('',(-17.66209870517,-7.387355371471E-15,
    120.64466875861));
#155 = ( BOUNDED_CURVE() B_SPLINE_CURVE(2,(#156,#157,#158,#159,#160,#161
,#162),.UNSPECIFIED.,.T.,.F.) B_SPLINE_CURVE_WITH_KNOTS((1,2,2,2,2,1),(
    -2.094395102393,0.,2.094395102393,4.188790204786,6.28318530718,
8.377580409573),.UNSPECIFIED.) CURVE() GEOMETRIC_REPRESENTATION_ITEM() 
RATIONAL_B_SPLINE_CURVE((1.,0.5,1.,0.5,1.,0.5,1.)) REPRESENTATION_ITEM(
  '') );
#156 = CARTESIAN_POINT('',(-17.66209870517,-7.387355371471E-15,
    120.64466875861));
#157 = CARTESIAN_POINT('',(-17.66209870517,208.96269595223,
    120.64466875861));
#158 = CARTESIAN_POINT('',(-17.66209870517,104.48134797611,
    -60.3223343793));
#159 = CARTESIAN_POINT('',(-17.66209870517,4.432413222883E-14,
    -241.2893375172));
#160 = CARTESIAN_POINT('',(-17.66209870517,-104.4813479761,
    -60.3223343793));
#161 = CARTESIAN_POINT('',(-17.66209870517,-208.9626959522,
    120.64466875861));
#162 = CARTESIAN_POINT('',(-17.66209870517,-7.387355371471E-15,
    120.64466875861));
#163 = ORIENTED_EDGE('',*,*,#164,.F.);
#164 = EDGE_CURVE('',#56,#153,#165,.T.);
#165 = ( BOUNDED_CURVE() B_SPLINE_CURVE(6,(#166,#167,#168,#169,#170,#171
,#172),.UNSPECIFIED.,.F.,.F.) B_SPLINE_CURVE_WITH_KNOTS((7,7),(
4.042704046502,5.382073914267),.PIECEWISE_BEZIER_KNOTS.) CURVE() 
GEOMETRIC_REPRESENTATION_ITEM() RATIONAL_B_SPLINE_CURVE((1.022714055074,
    1.007341623245,0.998492454492,0.995584938808,0.998492454492,
1.007341623245,1.022714055074)) REPRESENTATION_ITEM('') );
#166 = CARTESIAN_POINT('',(-17.66209870517,-3.145166459537E-14,
    102.72893251269));
#167 = CARTESIAN_POINT('',(-15.63193707285,-3.223671596863E-14,
    105.29310488894));
#168 = CARTESIAN_POINT('',(-14.33262215471,-3.31750917137E-14,
    108.35807266813));
#169 = CARTESIAN_POINT('',(-13.8852582982,-3.419422072636E-14,
    111.68680063565));
#170 = CARTESIAN_POINT('',(-14.33262215471,-3.521334973903E-14,
    115.01552860317));
#171 = CARTESIAN_POINT('',(-15.63193707285,-3.61517254841E-14,
    118.08049638236));
#172 = CARTESIAN_POINT('',(-17.66209870517,-3.693677685736E-14,
    120.64466875861));
#173 = ORIENTED_EDGE('',*,*,#55,.T.);
#174 = ORIENTED_EDGE('',*,*,#164,.T.);
#175 = ( BOUNDED_SURFACE() B_SPLINE_SURFACE(2,2,(
    (#176,#177,#178)
    ,(#179,#180,#181)
    ,(#182,#183,#184)
    ,(#185,#186,#187)
    ,(#188,#189,#190)
    ,(#191,#192,#193)
    ,(#194,#195,#196
)),.UNSPECIFIED.,.T.,.F.,.F.) B_SPLINE_SURFACE_WITH_KNOTS((1,2,2,2,2,1),
  (3,3),(-2.094395102393,0.,2.094395102393,4.188790204786,6.28318530718,
    8.377580409573),(4.042704046502,5.382073914267),.UNSPECIFIED.) 
GEOMETRIC_REPRESENTATION_ITEM() RATIONAL_B_SPLINE_SURFACE((
    (1.,0.784017278618,1.)
    ,(0.5,0.392008639309,0.5)
    ,(1.,0.784017278618,1.)
    ,(0.5,0.392008639309,0.5)
    ,(1.,0.784017278618,1.)
    ,(0.5,0.392008639309,0.5)
,(1.,0.784017278618,1.))) REPRESENTATION_ITEM('') SURFACE() );
#176 = CARTESIAN_POINT('',(-17.66209870517,-6.290332919075E-15,
    102.72893251269));
#177 = CARTESIAN_POINT('',(-10.56978293926,-6.838844145273E-15,
    111.68680063565));
#178 = CARTESIAN_POINT('',(-17.66209870517,-7.387355371471E-15,
    120.64466875861));
#179 = CARTESIAN_POINT('',(-17.66209870517,177.93173051929,
    102.72893251269));
#180 = CARTESIAN_POINT('',(-10.56978293926,193.44721323576,
    111.68680063565));
#181 = CARTESIAN_POINT('',(-17.66209870517,208.96269595223,
    120.64466875861));
#182 = CARTESIAN_POINT('',(-17.66209870517,88.96586525965,
    -51.36446625634));
#183 = CARTESIAN_POINT('',(-10.56978293926,96.723606617882,
    -55.84340031782));
#184 = CARTESIAN_POINT('',(-17.66209870517,104.48134797611,
    -60.3223343793));
#185 = CARTESIAN_POINT('',(-17.66209870517,3.774199751445E-14,
    -205.4578650253));
#186 = CARTESIAN_POINT('',(-10.56978293926,4.103306487164E-14,
    -223.3736012713));
#187 = CARTESIAN_POINT('',(-17.66209870517,4.432413222883E-14,
    -241.2893375172));
#188 = CARTESIAN_POINT('',(-17.66209870517,-88.96586525965,
    -51.36446625634));
#189 = CARTESIAN_POINT('',(-10.56978293926,-96.72360661788,
    -55.84340031782));
#190 = CARTESIAN_POINT('',(-17.66209870517,-104.4813479761,
    -60.3223343793));
#191 = CARTESIAN_POINT('',(-17.66209870517,-177.9317305192,
    102.72893251269));
#192 = CARTESIAN_POINT('',(-10.56978293926,-193.4472132357,
    111.68680063565));
#193 = CARTESIAN_POINT('',(-17.66209870517,-208.9626959522,
    120.64466875861));
#194 = CARTESIAN_POINT('',(-17.66209870517,-6.290332919075E-15,
    102.72893251269));
#195 = CARTESIAN_POINT('',(-10.56978293926,-6.838844145273E-15,
    111.68680063565));
#196 = CARTESIAN_POINT('',(-17.66209870517,-7.387355371471E-15,
    120.64466875861));
#197 = ADVANCED_FACE('',(#198,#201),#204,.T.);
#198 = FACE_BOUND('',#199,.T.);
#199 = EDGE_LOOP('',(#200));
#200 = ORIENTED_EDGE('',*,*,#123,.T.);
#201 = FACE_BOUND('',#202,.T.);
#202 = EDGE_LOOP('',(#203));
#203 = ORIENTED_EDGE('',*,*,#152,.F.);
#204 = B_SPLINE_SURFACE_WITH_KNOTS('',1,1,(
    (#205,#206)
    ,(#207,#208
    )),.UNSPECIFIED.,.F.,.F.,.F.,(2,2),(2,2),(-125.,125.),(-125.,125.),
  .PIECEWISE_BEZIER_KNOTS.);
#205 = CARTESIAN_POINT('',(-17.66209870517,-129.8683728321,
    -129.8683728321));
#206 = CARTESIAN_POINT('',(-17.66209870517,129.86837283215,
    -129.8683728321));
#207 = CARTESIAN_POINT('',(-17.66209870517,-129.8683728321,
    129.86837283215));
#208 = CARTESIAN_POINT('',(-17.66209870517,129.86837283215,
    129.86837283215));
#209 = ( GEOMETRIC_REPRESENTATION_CONTEXT(3) 
GLOBAL_UNCERTAINTY_ASSIGNED_CONTEXT((#213)) GLOBAL_UNIT_ASSIGNED_CONTEXT
((#210,#211,#212)) REPRESENTATION_CONTEXT('Context #1',
  '3D Context with UNIT and UNCERTAINTY') );
#210 = ( LENGTH_UNIT() NAMED_UNIT(*) SI_UNIT(.MILLI.,.METRE.) );
#211 = ( NAMED_UNIT(*) PLANE_ANGLE_UNIT() SI_UNIT($,.RADIAN.) );
#212 = ( NAMED_UNIT(*) SI_UNIT($,.STERADIAN.) SOLID_ANGLE_UNIT() );
#213 = UNCERTAINTY_MEASURE_WITH_UNIT(LENGTH_MEASURE(1.E-05),#210,
  'distance_accuracy_value','confusion accuracy');
#214 = PRODUCT_RELATED_PRODUCT_CATEGORY('part',$,(#7));
ENDSEC;
END-ISO-10303-21;
