ISO-10303-21;
HEADER;
FILE_DESCRIPTION(('FreeCAD Model'),'2;1');
FILE_NAME('Open CASCADE Shape Model','2025-05-05T18:18:55',('FreeCAD'),(
    'FreeCAD'),'Open CASCADE STEP processor 7.6','FreeCAD','Unknown');
FILE_SCHEMA(('AUTOMOTIVE_DESIGN { 1 0 10303 214 1 1 1 1 }'));
ENDSEC;
DATA;
#1 = APPLICATION_PROTOCOL_DEFINITION('international standard',
  'automotive_design',2000,#2);
#2 = APPLICATION_CONTEXT(
  'core data for automotive mechanical design processes');
#3 = SHAPE_DEFINITION_REPRESENTATION(#4,#10);
#4 = PRODUCT_DEFINITION_SHAPE('','',#5);
#5 = PRODUCT_DEFINITION('design','',#6,#9);
#6 = PRODUCT_DEFINITION_FORMATION('','',#7);
#7 = PRODUCT('Open CASCADE STEP translator 7.6 1',
  'Open CASCADE STEP translator 7.6 1','',(#8));
#8 = PRODUCT_CONTEXT('',#2,'mechanical');
#9 = PRODUCT_DEFINITION_CONTEXT('part definition',#2,'design');
#10 = SHAPE_REPRESENTATION('',(#11,#15,#205),#307);
#11 = AXIS2_PLACEMENT_3D('',#12,#13,#14);
#12 = CARTESIAN_POINT('',(0.,0.,0.));
#13 = DIRECTION('',(0.,0.,1.));
#14 = DIRECTION('',(1.,0.,-0.));
#15 = MANIFOLD_SOLID_BREP('',#16);
#16 = CLOSED_SHELL('',(#17,#65,#113,#145,#177,#191));
#17 = ADVANCED_FACE('',(#18),#54,.T.);
#18 = FACE_BOUND('',#19,.T.);
#19 = EDGE_LOOP('',(#20,#32,#39,#49));
#20 = ORIENTED_EDGE('',*,*,#21,.F.);
#21 = EDGE_CURVE('',#22,#24,#26,.T.);
#22 = VERTEX_POINT('',#23);
#23 = CARTESIAN_POINT('',(289.69878750309,3.547786928325E-14,
    4.055783025043E+03));
#24 = VERTEX_POINT('',#25);
#25 = CARTESIAN_POINT('',(-289.698787503,0.,4.055783025043E+03));
#26 = ( BOUNDED_CURVE() B_SPLINE_CURVE(2,(#27,#28,#29,#30,#31),
.UNSPECIFIED.,.F.,.F.) B_SPLINE_CURVE_WITH_KNOTS((3,2,3),(0.,
1.570796326795,3.14159265359),.PIECEWISE_BEZIER_KNOTS.) CURVE() 
GEOMETRIC_REPRESENTATION_ITEM() RATIONAL_B_SPLINE_CURVE((1.,
0.707106781187,1.,0.707106781187,1.)) REPRESENTATION_ITEM('') );
#27 = CARTESIAN_POINT('',(289.69878750309,0.,4.055783025043E+03));
#28 = CARTESIAN_POINT('',(289.69878750309,289.69878750309,
    4.055783025043E+03));
#29 = CARTESIAN_POINT('',(1.773893464163E-14,289.69878750309,
    4.055783025043E+03));
#30 = CARTESIAN_POINT('',(-289.698787503,289.69878750309,
    4.055783025043E+03));
#31 = CARTESIAN_POINT('',(-289.698787503,3.547786928325E-14,
    4.055783025043E+03));
#32 = ORIENTED_EDGE('',*,*,#33,.T.);
#33 = EDGE_CURVE('',#22,#34,#36,.T.);
#34 = VERTEX_POINT('',#35);
#35 = CARTESIAN_POINT('',(289.69878750309,3.547786928325E-14,
    3.228072203606E+03));
#36 = B_SPLINE_CURVE_WITH_KNOTS('',1,(#37,#38),.UNSPECIFIED.,.F.,.F.,(2,
    2),(0.,1.E+03),.PIECEWISE_BEZIER_KNOTS.);
#37 = CARTESIAN_POINT('',(289.69878750309,3.547786928325E-14,
    4.055783025043E+03));
#38 = CARTESIAN_POINT('',(289.69878750309,3.547786928325E-14,
    3.228072203606E+03));
#39 = ORIENTED_EDGE('',*,*,#40,.T.);
#40 = EDGE_CURVE('',#34,#41,#43,.T.);
#41 = VERTEX_POINT('',#42);
#42 = CARTESIAN_POINT('',(-289.698787503,0.,3.228072203606E+03));
#43 = ( BOUNDED_CURVE() B_SPLINE_CURVE(2,(#44,#45,#46,#47,#48),
.UNSPECIFIED.,.F.,.F.) B_SPLINE_CURVE_WITH_KNOTS((3,2,3),(0.,
1.570796326795,3.14159265359),.PIECEWISE_BEZIER_KNOTS.) CURVE() 
GEOMETRIC_REPRESENTATION_ITEM() RATIONAL_B_SPLINE_CURVE((1.,
0.707106781187,1.,0.707106781187,1.)) REPRESENTATION_ITEM('') );
#44 = CARTESIAN_POINT('',(289.69878750309,0.,3.228072203606E+03));
#45 = CARTESIAN_POINT('',(289.69878750309,289.69878750309,
    3.228072203606E+03));
#46 = CARTESIAN_POINT('',(1.773893464163E-14,289.69878750309,
    3.228072203606E+03));
#47 = CARTESIAN_POINT('',(-289.698787503,289.69878750309,
    3.228072203606E+03));
#48 = CARTESIAN_POINT('',(-289.698787503,3.547786928325E-14,
    3.228072203606E+03));
#49 = ORIENTED_EDGE('',*,*,#50,.F.);
#50 = EDGE_CURVE('',#24,#41,#51,.T.);
#51 = B_SPLINE_CURVE_WITH_KNOTS('',1,(#52,#53),.UNSPECIFIED.,.F.,.F.,(2,
    2),(0.,1.E+03),.PIECEWISE_BEZIER_KNOTS.);
#52 = CARTESIAN_POINT('',(-289.698787503,0.,4.055783025043E+03));
#53 = CARTESIAN_POINT('',(-289.698787503,0.,3.228072203606E+03));
#54 = ( BOUNDED_SURFACE() B_SPLINE_SURFACE(2,1,(
    (#55,#56)
    ,(#57,#58)
    ,(#59,#60)
    ,(#61,#62)
,(#63,#64
    )),.UNSPECIFIED.,.F.,.F.,.F.) B_SPLINE_SURFACE_WITH_KNOTS((3,2,3),(2
    ,2),(0.,1.570796326795,3.14159265359),(0.,1.E+03),
.PIECEWISE_BEZIER_KNOTS.) GEOMETRIC_REPRESENTATION_ITEM() 
RATIONAL_B_SPLINE_SURFACE((
    (1.,1.)
    ,(0.707106781187,0.707106781187)
    ,(1.,1.)
    ,(0.707106781187,0.707106781187)
,(1.,1.))) REPRESENTATION_ITEM('') SURFACE() );
#55 = CARTESIAN_POINT('',(-289.698787503,0.,4.055783025043E+03));
#56 = CARTESIAN_POINT('',(-289.698787503,0.,3.228072203606E+03));
#57 = CARTESIAN_POINT('',(-289.698787503,289.69878750309,
    4.055783025043E+03));
#58 = CARTESIAN_POINT('',(-289.698787503,289.69878750309,
    3.228072203606E+03));
#59 = CARTESIAN_POINT('',(-1.773893464163E-14,289.69878750309,
    4.055783025043E+03));
#60 = CARTESIAN_POINT('',(-1.773893464163E-14,289.69878750309,
    3.228072203606E+03));
#61 = CARTESIAN_POINT('',(289.69878750309,289.69878750309,
    4.055783025043E+03));
#62 = CARTESIAN_POINT('',(289.69878750309,289.69878750309,
    3.228072203606E+03));
#63 = CARTESIAN_POINT('',(289.69878750309,3.547786928325E-14,
    4.055783025043E+03));
#64 = CARTESIAN_POINT('',(289.69878750309,3.547786928325E-14,
    3.228072203606E+03));
#65 = ADVANCED_FACE('',(#66),#102,.F.);
#66 = FACE_BOUND('',#67,.F.);
#67 = EDGE_LOOP('',(#68,#77,#87,#94));
#68 = ORIENTED_EDGE('',*,*,#69,.T.);
#69 = EDGE_CURVE('',#70,#72,#74,.T.);
#70 = VERTEX_POINT('',#71);
#71 = CARTESIAN_POINT('',(-206.9293607809,0.,4.055783025043E+03));
#72 = VERTEX_POINT('',#73);
#73 = CARTESIAN_POINT('',(-206.9293607809,0.,3.228072203606E+03));
#74 = B_SPLINE_CURVE_WITH_KNOTS('',1,(#75,#76),.UNSPECIFIED.,.F.,.F.,(2,
    2),(0.,1.E+03),.PIECEWISE_BEZIER_KNOTS.);
#75 = CARTESIAN_POINT('',(-206.9293607809,0.,4.055783025043E+03));
#76 = CARTESIAN_POINT('',(-206.9293607809,0.,3.228072203606E+03));
#77 = ORIENTED_EDGE('',*,*,#78,.T.);
#78 = EDGE_CURVE('',#72,#79,#81,.T.);
#79 = VERTEX_POINT('',#80);
#80 = CARTESIAN_POINT('',(206.92936078099,2.534153793301E-14,
    3.228072203606E+03));
#81 = ( BOUNDED_CURVE() B_SPLINE_CURVE(2,(#82,#83,#84,#85,#86),
.UNSPECIFIED.,.F.,.F.) B_SPLINE_CURVE_WITH_KNOTS((3,2,3),(3.14159265359,
4.712388980385,6.28318530718),.PIECEWISE_BEZIER_KNOTS.) CURVE() 
GEOMETRIC_REPRESENTATION_ITEM() RATIONAL_B_SPLINE_CURVE((1.,
0.707106781187,1.,0.707106781187,1.)) REPRESENTATION_ITEM('') );
#82 = CARTESIAN_POINT('',(-206.9293607809,2.534153793301E-14,
    3.228072203606E+03));
#83 = CARTESIAN_POINT('',(-206.9293607809,-206.9293607809,
    3.228072203606E+03));
#84 = CARTESIAN_POINT('',(-3.801230689951E-14,-206.9293607809,
    3.228072203606E+03));
#85 = CARTESIAN_POINT('',(206.92936078099,-206.9293607809,
    3.228072203606E+03));
#86 = CARTESIAN_POINT('',(206.92936078099,-5.068307586601E-14,
    3.228072203606E+03));
#87 = ORIENTED_EDGE('',*,*,#88,.F.);
#88 = EDGE_CURVE('',#89,#79,#91,.T.);
#89 = VERTEX_POINT('',#90);
#90 = CARTESIAN_POINT('',(206.92936078099,2.534153793301E-14,
    4.055783025043E+03));
#91 = B_SPLINE_CURVE_WITH_KNOTS('',1,(#92,#93),.UNSPECIFIED.,.F.,.F.,(2,
    2),(0.,1.E+03),.PIECEWISE_BEZIER_KNOTS.);
#92 = CARTESIAN_POINT('',(206.92936078099,2.534153793301E-14,
    4.055783025043E+03));
#93 = CARTESIAN_POINT('',(206.92936078099,2.534153793301E-14,
    3.228072203606E+03));
#94 = ORIENTED_EDGE('',*,*,#95,.F.);
#95 = EDGE_CURVE('',#70,#89,#96,.T.);
#96 = ( BOUNDED_CURVE() B_SPLINE_CURVE(2,(#97,#98,#99,#100,#101),
.UNSPECIFIED.,.F.,.F.) B_SPLINE_CURVE_WITH_KNOTS((3,2,3),(3.14159265359,
4.712388980385,6.28318530718),.PIECEWISE_BEZIER_KNOTS.) CURVE() 
GEOMETRIC_REPRESENTATION_ITEM() RATIONAL_B_SPLINE_CURVE((1.,
0.707106781187,1.,0.707106781187,1.)) REPRESENTATION_ITEM('') );
#97 = CARTESIAN_POINT('',(-206.9293607809,2.534153793301E-14,
    4.055783025043E+03));
#98 = CARTESIAN_POINT('',(-206.9293607809,-206.9293607809,
    4.055783025043E+03));
#99 = CARTESIAN_POINT('',(-3.801230689951E-14,-206.9293607809,
    4.055783025043E+03));
#100 = CARTESIAN_POINT('',(206.92936078099,-206.9293607809,
    4.055783025043E+03));
#101 = CARTESIAN_POINT('',(206.92936078099,-5.068307586601E-14,
    4.055783025043E+03));
#102 = ( BOUNDED_SURFACE() B_SPLINE_SURFACE(2,1,(
    (#103,#104)
    ,(#105,#106)
    ,(#107,#108)
    ,(#109,#110)
,(#111,#112
    )),.UNSPECIFIED.,.F.,.F.,.F.) B_SPLINE_SURFACE_WITH_KNOTS((3,2,3),(2
    ,2),(3.14159265359,4.712388980385,6.28318530718),(0.,1.E+03),
.PIECEWISE_BEZIER_KNOTS.) GEOMETRIC_REPRESENTATION_ITEM() 
RATIONAL_B_SPLINE_SURFACE((
    (1.,1.)
    ,(0.707106781187,0.707106781187)
    ,(1.,1.)
    ,(0.707106781187,0.707106781187)
,(1.,1.))) REPRESENTATION_ITEM('') SURFACE() );
#103 = CARTESIAN_POINT('',(206.92936078099,2.534153793301E-14,
    4.055783025043E+03));
#104 = CARTESIAN_POINT('',(206.92936078099,2.534153793301E-14,
    3.228072203606E+03));
#105 = CARTESIAN_POINT('',(206.92936078099,-206.9293607809,
    4.055783025043E+03));
#106 = CARTESIAN_POINT('',(206.92936078099,-206.9293607809,
    3.228072203606E+03));
#107 = CARTESIAN_POINT('',(3.801230689951E-14,-206.9293607809,
    4.055783025043E+03));
#108 = CARTESIAN_POINT('',(3.801230689951E-14,-206.9293607809,
    3.228072203606E+03));
#109 = CARTESIAN_POINT('',(-206.9293607809,-206.9293607809,
    4.055783025043E+03));
#110 = CARTESIAN_POINT('',(-206.9293607809,-206.9293607809,
    3.228072203606E+03));
#111 = CARTESIAN_POINT('',(-206.9293607809,-5.068307586601E-14,
    4.055783025043E+03));
#112 = CARTESIAN_POINT('',(-206.9293607809,-5.068307586601E-14,
    3.228072203606E+03));
#113 = ADVANCED_FACE('',(#114),#134,.F.);
#114 = FACE_BOUND('',#115,.F.);
#115 = EDGE_LOOP('',(#116,#124,#125,#133));
#116 = ORIENTED_EDGE('',*,*,#117,.T.);
#117 = EDGE_CURVE('',#79,#72,#118,.T.);
#118 = ( BOUNDED_CURVE() B_SPLINE_CURVE(2,(#119,#120,#121,#122,#123),
.UNSPECIFIED.,.F.,.F.) B_SPLINE_CURVE_WITH_KNOTS((3,2,3),(0.,
1.570796326795,3.14159265359),.PIECEWISE_BEZIER_KNOTS.) CURVE() 
GEOMETRIC_REPRESENTATION_ITEM() RATIONAL_B_SPLINE_CURVE((1.,
0.707106781187,1.,0.707106781187,1.)) REPRESENTATION_ITEM('') );
#119 = CARTESIAN_POINT('',(206.92936078099,0.,3.228072203606E+03));
#120 = CARTESIAN_POINT('',(206.92936078099,206.92936078099,
    3.228072203606E+03));
#121 = CARTESIAN_POINT('',(1.26707689665E-14,206.92936078099,
    3.228072203606E+03));
#122 = CARTESIAN_POINT('',(-206.9293607809,206.92936078099,
    3.228072203606E+03));
#123 = CARTESIAN_POINT('',(-206.9293607809,2.534153793301E-14,
    3.228072203606E+03));
#124 = ORIENTED_EDGE('',*,*,#69,.F.);
#125 = ORIENTED_EDGE('',*,*,#126,.F.);
#126 = EDGE_CURVE('',#89,#70,#127,.T.);
#127 = ( BOUNDED_CURVE() B_SPLINE_CURVE(2,(#128,#129,#130,#131,#132),
.UNSPECIFIED.,.F.,.F.) B_SPLINE_CURVE_WITH_KNOTS((3,2,3),(0.,
1.570796326795,3.14159265359),.PIECEWISE_BEZIER_KNOTS.) CURVE() 
GEOMETRIC_REPRESENTATION_ITEM() RATIONAL_B_SPLINE_CURVE((1.,
0.707106781187,1.,0.707106781187,1.)) REPRESENTATION_ITEM('') );
#128 = CARTESIAN_POINT('',(206.92936078099,0.,4.055783025043E+03));
#129 = CARTESIAN_POINT('',(206.92936078099,206.92936078099,
    4.055783025043E+03));
#130 = CARTESIAN_POINT('',(1.26707689665E-14,206.92936078099,
    4.055783025043E+03));
#131 = CARTESIAN_POINT('',(-206.9293607809,206.92936078099,
    4.055783025043E+03));
#132 = CARTESIAN_POINT('',(-206.9293607809,2.534153793301E-14,
    4.055783025043E+03));
#133 = ORIENTED_EDGE('',*,*,#88,.T.);
#134 = ( BOUNDED_SURFACE() B_SPLINE_SURFACE(2,1,(
    (#135,#136)
    ,(#137,#138)
    ,(#139,#140)
    ,(#141,#142)
,(#143,#144
    )),.UNSPECIFIED.,.F.,.F.,.F.) B_SPLINE_SURFACE_WITH_KNOTS((3,2,3),(2
    ,2),(0.,1.570796326795,3.14159265359),(0.,1.E+03),
.PIECEWISE_BEZIER_KNOTS.) GEOMETRIC_REPRESENTATION_ITEM() 
RATIONAL_B_SPLINE_SURFACE((
    (1.,1.)
    ,(0.707106781187,0.707106781187)
    ,(1.,1.)
    ,(0.707106781187,0.707106781187)
,(1.,1.))) REPRESENTATION_ITEM('') SURFACE() );
#135 = CARTESIAN_POINT('',(-206.9293607809,0.,4.055783025043E+03));
#136 = CARTESIAN_POINT('',(-206.9293607809,0.,3.228072203606E+03));
#137 = CARTESIAN_POINT('',(-206.9293607809,206.92936078099,
    4.055783025043E+03));
#138 = CARTESIAN_POINT('',(-206.9293607809,206.92936078099,
    3.228072203606E+03));
#139 = CARTESIAN_POINT('',(-1.26707689665E-14,206.92936078099,
    4.055783025043E+03));
#140 = CARTESIAN_POINT('',(-1.26707689665E-14,206.92936078099,
    3.228072203606E+03));
#141 = CARTESIAN_POINT('',(206.92936078099,206.92936078099,
    4.055783025043E+03));
#142 = CARTESIAN_POINT('',(206.92936078099,206.92936078099,
    3.228072203606E+03));
#143 = CARTESIAN_POINT('',(206.92936078099,2.534153793301E-14,
    4.055783025043E+03));
#144 = CARTESIAN_POINT('',(206.92936078099,2.534153793301E-14,
    3.228072203606E+03));
#145 = ADVANCED_FACE('',(#146),#166,.T.);
#146 = FACE_BOUND('',#147,.T.);
#147 = EDGE_LOOP('',(#148,#149,#157,#158));
#148 = ORIENTED_EDGE('',*,*,#33,.F.);
#149 = ORIENTED_EDGE('',*,*,#150,.F.);
#150 = EDGE_CURVE('',#24,#22,#151,.T.);
#151 = ( BOUNDED_CURVE() B_SPLINE_CURVE(2,(#152,#153,#154,#155,#156),
.UNSPECIFIED.,.F.,.F.) B_SPLINE_CURVE_WITH_KNOTS((3,2,3),(3.14159265359,
4.712388980385,6.28318530718),.PIECEWISE_BEZIER_KNOTS.) CURVE() 
GEOMETRIC_REPRESENTATION_ITEM() RATIONAL_B_SPLINE_CURVE((1.,
0.707106781187,1.,0.707106781187,1.)) REPRESENTATION_ITEM('') );
#152 = CARTESIAN_POINT('',(-289.698787503,3.547786928325E-14,
    4.055783025043E+03));
#153 = CARTESIAN_POINT('',(-289.698787503,-289.698787503,
    4.055783025043E+03));
#154 = CARTESIAN_POINT('',(-5.321680392488E-14,-289.698787503,
    4.055783025043E+03));
#155 = CARTESIAN_POINT('',(289.69878750309,-289.698787503,
    4.055783025043E+03));
#156 = CARTESIAN_POINT('',(289.69878750309,-7.095573856651E-14,
    4.055783025043E+03));
#157 = ORIENTED_EDGE('',*,*,#50,.T.);
#158 = ORIENTED_EDGE('',*,*,#159,.T.);
#159 = EDGE_CURVE('',#41,#34,#160,.T.);
#160 = ( BOUNDED_CURVE() B_SPLINE_CURVE(2,(#161,#162,#163,#164,#165),
.UNSPECIFIED.,.F.,.F.) B_SPLINE_CURVE_WITH_KNOTS((3,2,3),(3.14159265359,
4.712388980385,6.28318530718),.PIECEWISE_BEZIER_KNOTS.) CURVE() 
GEOMETRIC_REPRESENTATION_ITEM() RATIONAL_B_SPLINE_CURVE((1.,
0.707106781187,1.,0.707106781187,1.)) REPRESENTATION_ITEM('') );
#161 = CARTESIAN_POINT('',(-289.698787503,3.547786928325E-14,
    3.228072203606E+03));
#162 = CARTESIAN_POINT('',(-289.698787503,-289.698787503,
    3.228072203606E+03));
#163 = CARTESIAN_POINT('',(-5.321680392488E-14,-289.698787503,
    3.228072203606E+03));
#164 = CARTESIAN_POINT('',(289.69878750309,-289.698787503,
    3.228072203606E+03));
#165 = CARTESIAN_POINT('',(289.69878750309,-7.095573856651E-14,
    3.228072203606E+03));
#166 = ( BOUNDED_SURFACE() B_SPLINE_SURFACE(2,1,(
    (#167,#168)
    ,(#169,#170)
    ,(#171,#172)
    ,(#173,#174)
,(#175,#176
    )),.UNSPECIFIED.,.F.,.F.,.F.) B_SPLINE_SURFACE_WITH_KNOTS((3,2,3),(2
    ,2),(3.14159265359,4.712388980385,6.28318530718),(0.,1.E+03),
.PIECEWISE_BEZIER_KNOTS.) GEOMETRIC_REPRESENTATION_ITEM() 
RATIONAL_B_SPLINE_SURFACE((
    (1.,1.)
    ,(0.707106781187,0.707106781187)
    ,(1.,1.)
    ,(0.707106781187,0.707106781187)
,(1.,1.))) REPRESENTATION_ITEM('') SURFACE() );
#167 = CARTESIAN_POINT('',(289.69878750309,3.547786928325E-14,
    4.055783025043E+03));
#168 = CARTESIAN_POINT('',(289.69878750309,3.547786928325E-14,
    3.228072203606E+03));
#169 = CARTESIAN_POINT('',(289.69878750309,-289.698787503,
    4.055783025043E+03));
#170 = CARTESIAN_POINT('',(289.69878750309,-289.698787503,
    3.228072203606E+03));
#171 = CARTESIAN_POINT('',(5.321680392488E-14,-289.698787503,
    4.055783025043E+03));
#172 = CARTESIAN_POINT('',(5.321680392488E-14,-289.698787503,
    3.228072203606E+03));
#173 = CARTESIAN_POINT('',(-289.698787503,-289.698787503,
    4.055783025043E+03));
#174 = CARTESIAN_POINT('',(-289.698787503,-289.698787503,
    3.228072203606E+03));
#175 = CARTESIAN_POINT('',(-289.698787503,-7.095573856651E-14,
    4.055783025043E+03));
#176 = CARTESIAN_POINT('',(-289.698787503,-7.095573856651E-14,
    3.228072203606E+03));
#177 = ADVANCED_FACE('',(#178,#182),#186,.T.);
#178 = FACE_BOUND('',#179,.T.);
#179 = EDGE_LOOP('',(#180,#181));
#180 = ORIENTED_EDGE('',*,*,#95,.F.);
#181 = ORIENTED_EDGE('',*,*,#126,.F.);
#182 = FACE_BOUND('',#183,.T.);
#183 = EDGE_LOOP('',(#184,#185));
#184 = ORIENTED_EDGE('',*,*,#150,.T.);
#185 = ORIENTED_EDGE('',*,*,#21,.T.);
#186 = B_SPLINE_SURFACE_WITH_KNOTS('',1,1,(
    (#187,#188)
    ,(#189,#190
    )),.UNSPECIFIED.,.F.,.F.,.F.,(2,2),(2,2),(-350.,350.),(-350.,350.),
  .PIECEWISE_BEZIER_KNOTS.);
#187 = CARTESIAN_POINT('',(-289.698787503,-289.698787503,
    4.055783025043E+03));
#188 = CARTESIAN_POINT('',(-289.698787503,289.69878750309,
    4.055783025043E+03));
#189 = CARTESIAN_POINT('',(289.69878750309,-289.698787503,
    4.055783025043E+03));
#190 = CARTESIAN_POINT('',(289.69878750309,289.69878750309,
    4.055783025043E+03));
#191 = ADVANCED_FACE('',(#192,#196),#200,.F.);
#192 = FACE_BOUND('',#193,.T.);
#193 = EDGE_LOOP('',(#194,#195));
#194 = ORIENTED_EDGE('',*,*,#78,.T.);
#195 = ORIENTED_EDGE('',*,*,#117,.T.);
#196 = FACE_BOUND('',#197,.T.);
#197 = EDGE_LOOP('',(#198,#199));
#198 = ORIENTED_EDGE('',*,*,#159,.F.);
#199 = ORIENTED_EDGE('',*,*,#40,.F.);
#200 = B_SPLINE_SURFACE_WITH_KNOTS('',1,1,(
    (#201,#202)
    ,(#203,#204
    )),.UNSPECIFIED.,.F.,.F.,.F.,(2,2),(2,2),(-350.,350.),(-350.,350.),
  .PIECEWISE_BEZIER_KNOTS.);
#201 = CARTESIAN_POINT('',(-289.698787503,-289.698787503,
    3.228072203606E+03));
#202 = CARTESIAN_POINT('',(-289.698787503,289.69878750309,
    3.228072203606E+03));
#203 = CARTESIAN_POINT('',(289.69878750309,-289.698787503,
    3.228072203606E+03));
#204 = CARTESIAN_POINT('',(289.69878750309,289.69878750309,
    3.228072203606E+03));
#205 = MANIFOLD_SOLID_BREP('',#206);
#206 = CLOSED_SHELL('',(#207,#255,#287,#297));
#207 = ADVANCED_FACE('',(#208),#244,.T.);
#208 = FACE_BOUND('',#209,.T.);
#209 = EDGE_LOOP('',(#210,#222,#229,#239));
#210 = ORIENTED_EDGE('',*,*,#211,.F.);
#211 = EDGE_CURVE('',#212,#214,#216,.T.);
#212 = VERTEX_POINT('',#213);
#213 = CARTESIAN_POINT('',(206.92770535935,2.534133520232E-14,
    4.138554107187E+03));
#214 = VERTEX_POINT('',#215);
#215 = CARTESIAN_POINT('',(-206.9277053593,0.,4.138554107187E+03));
#216 = ( BOUNDED_CURVE() B_SPLINE_CURVE(2,(#217,#218,#219,#220,#221),
.UNSPECIFIED.,.F.,.F.) B_SPLINE_CURVE_WITH_KNOTS((3,2,3),(0.,
1.570796326795,3.14159265359),.PIECEWISE_BEZIER_KNOTS.) CURVE() 
GEOMETRIC_REPRESENTATION_ITEM() RATIONAL_B_SPLINE_CURVE((1.,
0.707106781187,1.,0.707106781187,1.)) REPRESENTATION_ITEM('') );
#217 = CARTESIAN_POINT('',(206.92770535935,0.,4.138554107187E+03));
#218 = CARTESIAN_POINT('',(206.92770535935,206.92770535935,
    4.138554107187E+03));
#219 = CARTESIAN_POINT('',(1.267066760116E-14,206.92770535935,
    4.138554107187E+03));
#220 = CARTESIAN_POINT('',(-206.9277053593,206.92770535935,
    4.138554107187E+03));
#221 = CARTESIAN_POINT('',(-206.9277053593,2.534133520232E-14,
    4.138554107187E+03));
#222 = ORIENTED_EDGE('',*,*,#223,.T.);
#223 = EDGE_CURVE('',#212,#224,#226,.T.);
#224 = VERTEX_POINT('',#225);
#225 = CARTESIAN_POINT('',(206.92770535935,2.534133520232E-14,
    3.145301121462E+03));
#226 = B_SPLINE_CURVE_WITH_KNOTS('',1,(#227,#228),.UNSPECIFIED.,.F.,.F.,
  (2,2),(0.,1.2E+03),.PIECEWISE_BEZIER_KNOTS.);
#227 = CARTESIAN_POINT('',(206.92770535935,2.534133520232E-14,
    4.138554107187E+03));
#228 = CARTESIAN_POINT('',(206.92770535935,2.534133520232E-14,
    3.145301121462E+03));
#229 = ORIENTED_EDGE('',*,*,#230,.T.);
#230 = EDGE_CURVE('',#224,#231,#233,.T.);
#231 = VERTEX_POINT('',#232);
#232 = CARTESIAN_POINT('',(-206.9277053593,0.,3.145301121462E+03));
#233 = ( BOUNDED_CURVE() B_SPLINE_CURVE(2,(#234,#235,#236,#237,#238),
.UNSPECIFIED.,.F.,.F.) B_SPLINE_CURVE_WITH_KNOTS((3,2,3),(0.,
1.570796326795,3.14159265359),.PIECEWISE_BEZIER_KNOTS.) CURVE() 
GEOMETRIC_REPRESENTATION_ITEM() RATIONAL_B_SPLINE_CURVE((1.,
0.707106781187,1.,0.707106781187,1.)) REPRESENTATION_ITEM('') );
#234 = CARTESIAN_POINT('',(206.92770535935,0.,3.145301121462E+03));
#235 = CARTESIAN_POINT('',(206.92770535935,206.92770535935,
    3.145301121462E+03));
#236 = CARTESIAN_POINT('',(1.267066760116E-14,206.92770535935,
    3.145301121462E+03));
#237 = CARTESIAN_POINT('',(-206.9277053593,206.92770535935,
    3.145301121462E+03));
#238 = CARTESIAN_POINT('',(-206.9277053593,2.534133520232E-14,
    3.145301121462E+03));
#239 = ORIENTED_EDGE('',*,*,#240,.F.);
#240 = EDGE_CURVE('',#214,#231,#241,.T.);
#241 = B_SPLINE_CURVE_WITH_KNOTS('',1,(#242,#243),.UNSPECIFIED.,.F.,.F.,
  (2,2),(0.,1.2E+03),.PIECEWISE_BEZIER_KNOTS.);
#242 = CARTESIAN_POINT('',(-206.9277053593,0.,4.138554107187E+03));
#243 = CARTESIAN_POINT('',(-206.9277053593,0.,3.145301121462E+03));
#244 = ( BOUNDED_SURFACE() B_SPLINE_SURFACE(2,1,(
    (#245,#246)
    ,(#247,#248)
    ,(#249,#250)
    ,(#251,#252)
,(#253,#254
    )),.UNSPECIFIED.,.F.,.F.,.F.) B_SPLINE_SURFACE_WITH_KNOTS((3,2,3),(2
    ,2),(0.,1.570796326795,3.14159265359),(0.,1.2E+03),
.PIECEWISE_BEZIER_KNOTS.) GEOMETRIC_REPRESENTATION_ITEM() 
RATIONAL_B_SPLINE_SURFACE((
    (1.,1.)
    ,(0.707106781187,0.707106781187)
    ,(1.,1.)
    ,(0.707106781187,0.707106781187)
,(1.,1.))) REPRESENTATION_ITEM('') SURFACE() );
#245 = CARTESIAN_POINT('',(-206.9277053593,0.,4.138554107187E+03));
#246 = CARTESIAN_POINT('',(-206.9277053593,0.,3.145301121462E+03));
#247 = CARTESIAN_POINT('',(-206.9277053593,206.92770535935,
    4.138554107187E+03));
#248 = CARTESIAN_POINT('',(-206.9277053593,206.92770535935,
    3.145301121462E+03));
#249 = CARTESIAN_POINT('',(-1.267066760116E-14,206.92770535935,
    4.138554107187E+03));
#250 = CARTESIAN_POINT('',(-1.267066760116E-14,206.92770535935,
    3.145301121462E+03));
#251 = CARTESIAN_POINT('',(206.92770535935,206.92770535935,
    4.138554107187E+03));
#252 = CARTESIAN_POINT('',(206.92770535935,206.92770535935,
    3.145301121462E+03));
#253 = CARTESIAN_POINT('',(206.92770535935,2.534133520232E-14,
    4.138554107187E+03));
#254 = CARTESIAN_POINT('',(206.92770535935,2.534133520232E-14,
    3.145301121462E+03));
#255 = ADVANCED_FACE('',(#256),#276,.T.);
#256 = FACE_BOUND('',#257,.T.);
#257 = EDGE_LOOP('',(#258,#259,#267,#268));
#258 = ORIENTED_EDGE('',*,*,#223,.F.);
#259 = ORIENTED_EDGE('',*,*,#260,.F.);
#260 = EDGE_CURVE('',#214,#212,#261,.T.);
#261 = ( BOUNDED_CURVE() B_SPLINE_CURVE(2,(#262,#263,#264,#265,#266),
.UNSPECIFIED.,.F.,.F.) B_SPLINE_CURVE_WITH_KNOTS((3,2,3),(3.14159265359,
4.712388980385,6.28318530718),.PIECEWISE_BEZIER_KNOTS.) CURVE() 
GEOMETRIC_REPRESENTATION_ITEM() RATIONAL_B_SPLINE_CURVE((1.,
0.707106781187,1.,0.707106781187,1.)) REPRESENTATION_ITEM('') );
#262 = CARTESIAN_POINT('',(-206.9277053593,2.534133520232E-14,
    4.138554107187E+03));
#263 = CARTESIAN_POINT('',(-206.9277053593,-206.9277053593,
    4.138554107187E+03));
#264 = CARTESIAN_POINT('',(-3.801200280349E-14,-206.9277053593,
    4.138554107187E+03));
#265 = CARTESIAN_POINT('',(206.92770535935,-206.9277053593,
    4.138554107187E+03));
#266 = CARTESIAN_POINT('',(206.92770535935,-5.068267040465E-14,
    4.138554107187E+03));
#267 = ORIENTED_EDGE('',*,*,#240,.T.);
#268 = ORIENTED_EDGE('',*,*,#269,.T.);
#269 = EDGE_CURVE('',#231,#224,#270,.T.);
#270 = ( BOUNDED_CURVE() B_SPLINE_CURVE(2,(#271,#272,#273,#274,#275),
.UNSPECIFIED.,.F.,.F.) B_SPLINE_CURVE_WITH_KNOTS((3,2,3),(3.14159265359,
4.712388980385,6.28318530718),.PIECEWISE_BEZIER_KNOTS.) CURVE() 
GEOMETRIC_REPRESENTATION_ITEM() RATIONAL_B_SPLINE_CURVE((1.,
0.707106781187,1.,0.707106781187,1.)) REPRESENTATION_ITEM('') );
#271 = CARTESIAN_POINT('',(-206.9277053593,2.534133520232E-14,
    3.145301121462E+03));
#272 = CARTESIAN_POINT('',(-206.9277053593,-206.9277053593,
    3.145301121462E+03));
#273 = CARTESIAN_POINT('',(-3.801200280349E-14,-206.9277053593,
    3.145301121462E+03));
#274 = CARTESIAN_POINT('',(206.92770535935,-206.9277053593,
    3.145301121462E+03));
#275 = CARTESIAN_POINT('',(206.92770535935,-5.068267040465E-14,
    3.145301121462E+03));
#276 = ( BOUNDED_SURFACE() B_SPLINE_SURFACE(2,1,(
    (#277,#278)
    ,(#279,#280)
    ,(#281,#282)
    ,(#283,#284)
,(#285,#286
    )),.UNSPECIFIED.,.F.,.F.,.F.) B_SPLINE_SURFACE_WITH_KNOTS((3,2,3),(2
    ,2),(3.14159265359,4.712388980385,6.28318530718),(0.,1.2E+03),
.PIECEWISE_BEZIER_KNOTS.) GEOMETRIC_REPRESENTATION_ITEM() 
RATIONAL_B_SPLINE_SURFACE((
    (1.,1.)
    ,(0.707106781187,0.707106781187)
    ,(1.,1.)
    ,(0.707106781187,0.707106781187)
,(1.,1.))) REPRESENTATION_ITEM('') SURFACE() );
#277 = CARTESIAN_POINT('',(206.92770535935,2.534133520232E-14,
    4.138554107187E+03));
#278 = CARTESIAN_POINT('',(206.92770535935,2.534133520232E-14,
    3.145301121462E+03));
#279 = CARTESIAN_POINT('',(206.92770535935,-206.9277053593,
    4.138554107187E+03));
#280 = CARTESIAN_POINT('',(206.92770535935,-206.9277053593,
    3.145301121462E+03));
#281 = CARTESIAN_POINT('',(3.801200280349E-14,-206.9277053593,
    4.138554107187E+03));
#282 = CARTESIAN_POINT('',(3.801200280349E-14,-206.9277053593,
    3.145301121462E+03));
#283 = CARTESIAN_POINT('',(-206.9277053593,-206.9277053593,
    4.138554107187E+03));
#284 = CARTESIAN_POINT('',(-206.9277053593,-206.9277053593,
    3.145301121462E+03));
#285 = CARTESIAN_POINT('',(-206.9277053593,-5.068267040465E-14,
    4.138554107187E+03));
#286 = CARTESIAN_POINT('',(-206.9277053593,-5.068267040465E-14,
    3.145301121462E+03));
#287 = ADVANCED_FACE('',(#288),#292,.T.);
#288 = FACE_BOUND('',#289,.T.);
#289 = EDGE_LOOP('',(#290,#291));
#290 = ORIENTED_EDGE('',*,*,#260,.T.);
#291 = ORIENTED_EDGE('',*,*,#211,.T.);
#292 = B_SPLINE_SURFACE_WITH_KNOTS('',1,1,(
    (#293,#294)
    ,(#295,#296
    )),.UNSPECIFIED.,.F.,.F.,.F.,(2,2),(2,2),(-250.,250.),(-250.,250.),
  .PIECEWISE_BEZIER_KNOTS.);
#293 = CARTESIAN_POINT('',(-206.9277053593,-206.9277053593,
    4.138554107187E+03));
#294 = CARTESIAN_POINT('',(-206.9277053593,206.92770535935,
    4.138554107187E+03));
#295 = CARTESIAN_POINT('',(206.92770535935,-206.9277053593,
    4.138554107187E+03));
#296 = CARTESIAN_POINT('',(206.92770535935,206.92770535935,
    4.138554107187E+03));
#297 = ADVANCED_FACE('',(#298),#302,.F.);
#298 = FACE_BOUND('',#299,.T.);
#299 = EDGE_LOOP('',(#300,#301));
#300 = ORIENTED_EDGE('',*,*,#269,.F.);
#301 = ORIENTED_EDGE('',*,*,#230,.F.);
#302 = B_SPLINE_SURFACE_WITH_KNOTS('',1,1,(
    (#303,#304)
    ,(#305,#306
    )),.UNSPECIFIED.,.F.,.F.,.F.,(2,2),(2,2),(-250.,250.),(-250.,250.),
  .PIECEWISE_BEZIER_KNOTS.);
#303 = CARTESIAN_POINT('',(-206.9277053593,-206.9277053593,
    3.145301121462E+03));
#304 = CARTESIAN_POINT('',(-206.9277053593,206.92770535935,
    3.145301121462E+03));
#305 = CARTESIAN_POINT('',(206.92770535935,-206.9277053593,
    3.145301121462E+03));
#306 = CARTESIAN_POINT('',(206.92770535935,206.92770535935,
    3.145301121462E+03));
#307 = ( GEOMETRIC_REPRESENTATION_CONTEXT(3) 
GLOBAL_UNCERTAINTY_ASSIGNED_CONTEXT((#311)) GLOBAL_UNIT_ASSIGNED_CONTEXT
((#308,#309,#310)) REPRESENTATION_CONTEXT('Context #1',
  '3D Context with UNIT and UNCERTAINTY') );
#308 = ( LENGTH_UNIT() NAMED_UNIT(*) SI_UNIT(.MILLI.,.METRE.) );
#309 = ( NAMED_UNIT(*) PLANE_ANGLE_UNIT() SI_UNIT($,.RADIAN.) );
#310 = ( NAMED_UNIT(*) SI_UNIT($,.STERADIAN.) SOLID_ANGLE_UNIT() );
#311 = UNCERTAINTY_MEASURE_WITH_UNIT(LENGTH_MEASURE(1.E-07),#308,
  'distance_accuracy_value','confusion accuracy');
#312 = PRODUCT_RELATED_PRODUCT_CATEGORY('part',$,(#7));
ENDSEC;
END-ISO-10303-21;
