ISO-10303-21;
HEADER;
FILE_DESCRIPTION(('FreeCAD Model'),'2;1');
FILE_NAME('Open CASCADE Shape Model','2025-05-05T08:23:33',('FreeCAD'),(
    'FreeCAD'),'Open CASCADE STEP processor 7.6','FreeCAD','Unknown');
FILE_SCHEMA(('AUTOMOTIVE_DESIGN { 1 0 10303 214 1 1 1 1 }'));
ENDSEC;
DATA;
#1 = APPLICATION_PROTOCOL_DEFINITION('international standard',
  'automotive_design',2000,#2);
#2 = APPLICATION_CONTEXT(
  'core data for automotive mechanical design processes');
#3 = SHAPE_DEFINITION_REPRESENTATION(#4,#10);
#4 = PRODUCT_DEFINITION_SHAPE('','',#5);
#5 = PRODUCT_DEFINITION('design','',#6,#9);
#6 = PRODUCT_DEFINITION_FORMATION('','',#7);
#7 = PRODUCT('Open CASCADE STEP translator 7.6 1',
  'Open CASCADE STEP translator 7.6 1','',(#8));
#8 = PRODUCT_CONTEXT('',#2,'mechanical');
#9 = PRODUCT_DEFINITION_CONTEXT('part definition',#2,'design');
#10 = ADVANCED_BREP_SHAPE_REPRESENTATION('',(#11,#15),#193);
#11 = AXIS2_PLACEMENT_3D('',#12,#13,#14);
#12 = CARTESIAN_POINT('',(0.,0.,0.));
#13 = DIRECTION('',(0.,0.,1.));
#14 = DIRECTION('',(1.,0.,-0.));
#15 = MANIFOLD_SOLID_BREP('',#16);
#16 = CLOSED_SHELL('',(#17,#73,#106,#149,#169,#181));
#17 = ADVANCED_FACE('',(#18),#58,.F.);
#18 = FACE_BOUND('',#19,.F.);
#19 = EDGE_LOOP('',(#20,#29,#41,#48));
#20 = ORIENTED_EDGE('',*,*,#21,.T.);
#21 = EDGE_CURVE('',#22,#24,#26,.T.);
#22 = VERTEX_POINT('',#23);
#23 = CARTESIAN_POINT('',(0.,-0.372774762537,4.736552453272));
#24 = VERTEX_POINT('',#25);
#25 = CARTESIAN_POINT('',(-2.308993815946,-0.372774762537,4.736552453272
    ));
#26 = B_SPLINE_CURVE_WITH_KNOTS('',1,(#27,#28),.UNSPECIFIED.,.F.,.F.,(2,
    2),(-34.925,-32.9438),.PIECEWISE_BEZIER_KNOTS.);
#27 = CARTESIAN_POINT('',(0.,-0.372774762537,4.736552453272));
#28 = CARTESIAN_POINT('',(-2.308993815946,-0.372774762537,4.736552453272
    ));
#29 = ORIENTED_EDGE('',*,*,#30,.F.);
#30 = EDGE_CURVE('',#31,#24,#33,.T.);
#31 = VERTEX_POINT('',#32);
#32 = CARTESIAN_POINT('',(-2.308993815946,0.372774762537,4.736552453272)
  );
#33 = ( BOUNDED_CURVE() B_SPLINE_CURVE(2,(#34,#35,#36,#37,#38,#39,#40),
.UNSPECIFIED.,.F.,.F.) B_SPLINE_CURVE_WITH_KNOTS((3,2,2,3),(
    7.853981633975E-02,2.120575041173,4.162610266006,6.20464549084),
.PIECEWISE_BEZIER_KNOTS.) CURVE() GEOMETRIC_REPRESENTATION_ITEM() 
RATIONAL_B_SPLINE_CURVE((1.,0.522498564716,1.,0.522498564716,1.,
0.522498564716,1.)) REPRESENTATION_ITEM('') );
#34 = CARTESIAN_POINT('',(-2.308993815946,0.372774762537,4.736552453272)
  );
#35 = CARTESIAN_POINT('',(-2.308993815946,8.102125874582,4.128239328107)
  );
#36 = CARTESIAN_POINT('',(-2.308993815946,4.051062937291,-2.482494560776
    ));
#37 = CARTESIAN_POINT('',(-2.308993815946,1.113599311479E-15,
    -9.09322844966));
#38 = CARTESIAN_POINT('',(-2.308993815946,-4.051062937291,
    -2.482494560776));
#39 = CARTESIAN_POINT('',(-2.308993815946,-8.102125874582,4.128239328107
    ));
#40 = CARTESIAN_POINT('',(-2.308993815946,-0.372774762537,4.736552453272
    ));
#41 = ORIENTED_EDGE('',*,*,#42,.F.);
#42 = EDGE_CURVE('',#43,#31,#45,.T.);
#43 = VERTEX_POINT('',#44);
#44 = CARTESIAN_POINT('',(0.,0.372774762537,4.736552453272));
#45 = B_SPLINE_CURVE_WITH_KNOTS('',1,(#46,#47),.UNSPECIFIED.,.F.,.F.,(2,
    2),(-34.925,-32.9438),.PIECEWISE_BEZIER_KNOTS.);
#46 = CARTESIAN_POINT('',(0.,0.372774762537,4.736552453272));
#47 = CARTESIAN_POINT('',(-2.308993815946,0.372774762537,4.736552453272)
  );
#48 = ORIENTED_EDGE('',*,*,#49,.T.);
#49 = EDGE_CURVE('',#43,#22,#50,.T.);
#50 = ( BOUNDED_CURVE() B_SPLINE_CURVE(2,(#51,#52,#53,#54,#55,#56,#57),
.UNSPECIFIED.,.F.,.F.) B_SPLINE_CURVE_WITH_KNOTS((3,2,2,3),(
    7.853981633975E-02,2.120575041173,4.162610266006,6.20464549084),
.PIECEWISE_BEZIER_KNOTS.) CURVE() GEOMETRIC_REPRESENTATION_ITEM() 
RATIONAL_B_SPLINE_CURVE((1.,0.522498564716,1.,0.522498564716,1.,
0.522498564716,1.)) REPRESENTATION_ITEM('') );
#51 = CARTESIAN_POINT('',(0.,0.372774762537,4.736552453272));
#52 = CARTESIAN_POINT('',(0.,8.102125874582,4.128239328107));
#53 = CARTESIAN_POINT('',(0.,4.051062937291,-2.482494560776));
#54 = CARTESIAN_POINT('',(0.,1.113599311479E-15,-9.09322844966));
#55 = CARTESIAN_POINT('',(0.,-4.051062937291,-2.482494560776));
#56 = CARTESIAN_POINT('',(0.,-8.102125874582,4.128239328107));
#57 = CARTESIAN_POINT('',(0.,-0.372774762537,4.736552453272));
#58 = ( BOUNDED_SURFACE() B_SPLINE_SURFACE(2,1,(
    (#59,#60)
    ,(#61,#62)
    ,(#63,#64)
    ,(#65,#66)
    ,(#67,#68)
    ,(#69,#70)
,(#71,#72
    )),.UNSPECIFIED.,.F.,.F.,.F.) B_SPLINE_SURFACE_WITH_KNOTS((3,2,2,3),
  (2,2),(7.853981633975E-02,2.120575041173,4.162610266006,6.20464549084)
  ,(-34.925,-32.9438),.PIECEWISE_BEZIER_KNOTS.) 
GEOMETRIC_REPRESENTATION_ITEM() RATIONAL_B_SPLINE_SURFACE((
    (1.,1.)
    ,(0.522498564716,0.522498564716)
    ,(1.,1.)
    ,(0.522498564716,0.522498564716)
    ,(1.,1.)
    ,(0.522498564716,0.522498564716)
,(1.,1.))) REPRESENTATION_ITEM('') SURFACE() );
#59 = CARTESIAN_POINT('',(0.,0.372774762537,4.736552453272));
#60 = CARTESIAN_POINT('',(-2.308993815946,0.372774762537,4.736552453272)
  );
#61 = CARTESIAN_POINT('',(0.,8.102125874582,4.128239328107));
#62 = CARTESIAN_POINT('',(-2.308993815946,8.102125874582,4.128239328107)
  );
#63 = CARTESIAN_POINT('',(0.,4.051062937291,-2.482494560776));
#64 = CARTESIAN_POINT('',(-2.308993815946,4.051062937291,-2.482494560776
    ));
#65 = CARTESIAN_POINT('',(0.,1.113599311479E-15,-9.09322844966));
#66 = CARTESIAN_POINT('',(-2.308993815946,1.113599311479E-15,
    -9.09322844966));
#67 = CARTESIAN_POINT('',(0.,-4.051062937291,-2.482494560776));
#68 = CARTESIAN_POINT('',(-2.308993815946,-4.051062937291,
    -2.482494560776));
#69 = CARTESIAN_POINT('',(0.,-8.102125874582,4.128239328107));
#70 = CARTESIAN_POINT('',(-2.308993815946,-8.102125874582,4.128239328107
    ));
#71 = CARTESIAN_POINT('',(0.,-0.372774762537,4.736552453272));
#72 = CARTESIAN_POINT('',(-2.308993815946,-0.372774762537,4.736552453272
    ));
#73 = ADVANCED_FACE('',(#74),#101,.F.);
#74 = FACE_BOUND('',#75,.T.);
#75 = EDGE_LOOP('',(#76,#90,#95,#96));
#76 = ORIENTED_EDGE('',*,*,#77,.F.);
#77 = EDGE_CURVE('',#78,#80,#82,.T.);
#78 = VERTEX_POINT('',#79);
#79 = CARTESIAN_POINT('',(0.,0.680517167746,8.646790459866));
#80 = VERTEX_POINT('',#81);
#81 = CARTESIAN_POINT('',(0.,-0.680517167746,8.646790459866));
#82 = ( BOUNDED_CURVE() B_SPLINE_CURVE(2,(#83,#84,#85,#86,#87,#88,#89),
.UNSPECIFIED.,.F.,.F.) B_SPLINE_CURVE_WITH_KNOTS((3,2,2,3),(
    7.853981633975E-02,2.120575041173,4.162610266006,6.20464549084),
.PIECEWISE_BEZIER_KNOTS.) CURVE() GEOMETRIC_REPRESENTATION_ITEM() 
RATIONAL_B_SPLINE_CURVE((1.,0.522498564716,1.,0.522498564716,1.,
0.522498564716,1.)) REPRESENTATION_ITEM('') );
#83 = CARTESIAN_POINT('',(0.,0.680517167746,8.646790459866));
#84 = CARTESIAN_POINT('',(0.,14.790796767928,7.536287371559));
#85 = CARTESIAN_POINT('',(0.,7.395398383964,-4.531905958302));
#86 = CARTESIAN_POINT('',(0.,2.032925845878E-15,-16.60009928816));
#87 = CARTESIAN_POINT('',(0.,-7.395398383964,-4.531905958302));
#88 = CARTESIAN_POINT('',(0.,-14.79079676792,7.536287371559));
#89 = CARTESIAN_POINT('',(0.,-0.680517167746,8.646790459866));
#90 = ORIENTED_EDGE('',*,*,#91,.F.);
#91 = EDGE_CURVE('',#43,#78,#92,.T.);
#92 = B_SPLINE_CURVE_WITH_KNOTS('',1,(#93,#94),.UNSPECIFIED.,.F.,.F.,(2,
    2),(4.0767,7.4422),.PIECEWISE_BEZIER_KNOTS.);
#93 = CARTESIAN_POINT('',(0.,0.372774762537,4.736552453272));
#94 = CARTESIAN_POINT('',(0.,0.680517167746,8.646790459866));
#95 = ORIENTED_EDGE('',*,*,#49,.T.);
#96 = ORIENTED_EDGE('',*,*,#97,.T.);
#97 = EDGE_CURVE('',#22,#80,#98,.T.);
#98 = B_SPLINE_CURVE_WITH_KNOTS('',1,(#99,#100),.UNSPECIFIED.,.F.,.F.,(2
    ,2),(4.0767,7.4422),.PIECEWISE_BEZIER_KNOTS.);
#99 = CARTESIAN_POINT('',(0.,-0.372774762537,4.736552453272));
#100 = CARTESIAN_POINT('',(0.,-0.680517167746,8.646790459866));
#101 = B_SPLINE_SURFACE_WITH_KNOTS('',1,1,(
    (#102,#103)
    ,(#104,#105
    )),.UNSPECIFIED.,.F.,.F.,.F.,(2,2),(2,2),(-7.4422,7.419258181109),(
    -11.5189,3.3655),.PIECEWISE_BEZIER_KNOTS.);
#102 = CARTESIAN_POINT('',(0.,-8.673528052208,-8.673528052208));
#103 = CARTESIAN_POINT('',(0.,8.673528052208,-8.673528052208));
#104 = CARTESIAN_POINT('',(0.,-8.673528052208,8.646790459866));
#105 = CARTESIAN_POINT('',(0.,8.673528052208,8.646790459866));
#106 = ADVANCED_FACE('',(#107),#134,.T.);
#107 = FACE_BOUND('',#108,.T.);
#108 = EDGE_LOOP('',(#109,#123,#128,#129));
#109 = ORIENTED_EDGE('',*,*,#110,.F.);
#110 = EDGE_CURVE('',#111,#113,#115,.T.);
#111 = VERTEX_POINT('',#112);
#112 = CARTESIAN_POINT('',(-2.308993815946,0.680517167746,8.646790459866
    ));
#113 = VERTEX_POINT('',#114);
#114 = CARTESIAN_POINT('',(-2.308993815946,-0.680517167746,
    8.646790459866));
#115 = ( BOUNDED_CURVE() B_SPLINE_CURVE(2,(#116,#117,#118,#119,#120,#121
,#122),.UNSPECIFIED.,.F.,.F.) B_SPLINE_CURVE_WITH_KNOTS((3,2,2,3),(
    7.853981633975E-02,2.120575041173,4.162610266006,6.20464549084),
.PIECEWISE_BEZIER_KNOTS.) CURVE() GEOMETRIC_REPRESENTATION_ITEM() 
RATIONAL_B_SPLINE_CURVE((1.,0.522498564716,1.,0.522498564716,1.,
0.522498564716,1.)) REPRESENTATION_ITEM('') );
#116 = CARTESIAN_POINT('',(-2.308993815946,0.680517167746,8.646790459866
    ));
#117 = CARTESIAN_POINT('',(-2.308993815946,14.790796767928,
    7.536287371559));
#118 = CARTESIAN_POINT('',(-2.308993815946,7.395398383964,
    -4.531905958302));
#119 = CARTESIAN_POINT('',(-2.308993815946,2.032925845878E-15,
    -16.60009928816));
#120 = CARTESIAN_POINT('',(-2.308993815946,-7.395398383964,
    -4.531905958302));
#121 = CARTESIAN_POINT('',(-2.308993815946,-14.79079676792,
    7.536287371559));
#122 = CARTESIAN_POINT('',(-2.308993815946,-0.680517167746,
    8.646790459866));
#123 = ORIENTED_EDGE('',*,*,#124,.T.);
#124 = EDGE_CURVE('',#111,#78,#125,.T.);
#125 = B_SPLINE_CURVE_WITH_KNOTS('',1,(#126,#127),.UNSPECIFIED.,.F.,.F.,
  (2,2),(32.9438,34.925),.PIECEWISE_BEZIER_KNOTS.);
#126 = CARTESIAN_POINT('',(-2.308993815946,0.680517167746,8.646790459866
    ));
#127 = CARTESIAN_POINT('',(0.,0.680517167746,8.646790459866));
#128 = ORIENTED_EDGE('',*,*,#77,.T.);
#129 = ORIENTED_EDGE('',*,*,#130,.F.);
#130 = EDGE_CURVE('',#113,#80,#131,.T.);
#131 = B_SPLINE_CURVE_WITH_KNOTS('',1,(#132,#133),.UNSPECIFIED.,.F.,.F.,
  (2,2),(32.9438,34.925),.PIECEWISE_BEZIER_KNOTS.);
#132 = CARTESIAN_POINT('',(-2.308993815946,-0.680517167746,
    8.646790459866));
#133 = CARTESIAN_POINT('',(0.,-0.680517167746,8.646790459866));
#134 = ( BOUNDED_SURFACE() B_SPLINE_SURFACE(2,1,(
    (#135,#136)
    ,(#137,#138)
    ,(#139,#140)
    ,(#141,#142)
    ,(#143,#144)
    ,(#145,#146)
,(#147,#148
    )),.UNSPECIFIED.,.F.,.F.,.F.) B_SPLINE_SURFACE_WITH_KNOTS((3,2,2,3),
  (2,2),(7.853981633975E-02,2.120575041173,4.162610266006,6.20464549084)
  ,(-34.925,-32.9438),.PIECEWISE_BEZIER_KNOTS.) 
GEOMETRIC_REPRESENTATION_ITEM() RATIONAL_B_SPLINE_SURFACE((
    (1.,1.)
    ,(0.522498564716,0.522498564716)
    ,(1.,1.)
    ,(0.522498564716,0.522498564716)
    ,(1.,1.)
    ,(0.522498564716,0.522498564716)
,(1.,1.))) REPRESENTATION_ITEM('') SURFACE() );
#135 = CARTESIAN_POINT('',(0.,0.680517167746,8.646790459866));
#136 = CARTESIAN_POINT('',(-2.308993815946,0.680517167746,8.646790459866
    ));
#137 = CARTESIAN_POINT('',(0.,14.790796767928,7.536287371559));
#138 = CARTESIAN_POINT('',(-2.308993815946,14.790796767928,
    7.536287371559));
#139 = CARTESIAN_POINT('',(0.,7.395398383964,-4.531905958302));
#140 = CARTESIAN_POINT('',(-2.308993815946,7.395398383964,
    -4.531905958302));
#141 = CARTESIAN_POINT('',(0.,2.032925845878E-15,-16.60009928816));
#142 = CARTESIAN_POINT('',(-2.308993815946,2.032925845878E-15,
    -16.60009928816));
#143 = CARTESIAN_POINT('',(0.,-7.395398383964,-4.531905958302));
#144 = CARTESIAN_POINT('',(-2.308993815946,-7.395398383964,
    -4.531905958302));
#145 = CARTESIAN_POINT('',(0.,-14.79079676792,7.536287371559));
#146 = CARTESIAN_POINT('',(-2.308993815946,-14.79079676792,
    7.536287371559));
#147 = CARTESIAN_POINT('',(0.,-0.680517167746,8.646790459866));
#148 = CARTESIAN_POINT('',(-2.308993815946,-0.680517167746,
    8.646790459866));
#149 = ADVANCED_FACE('',(#150),#164,.F.);
#150 = FACE_BOUND('',#151,.T.);
#151 = EDGE_LOOP('',(#152,#153,#158,#159));
#152 = ORIENTED_EDGE('',*,*,#30,.F.);
#153 = ORIENTED_EDGE('',*,*,#154,.T.);
#154 = EDGE_CURVE('',#31,#111,#155,.T.);
#155 = B_SPLINE_CURVE_WITH_KNOTS('',1,(#156,#157),.UNSPECIFIED.,.F.,.F.,
  (2,2),(3.492791717774,6.858291717774),.PIECEWISE_BEZIER_KNOTS.);
#156 = CARTESIAN_POINT('',(-2.308993815946,0.372774762537,4.736552453272
    ));
#157 = CARTESIAN_POINT('',(-2.308993815946,0.680517167746,8.646790459866
    ));
#158 = ORIENTED_EDGE('',*,*,#110,.T.);
#159 = ORIENTED_EDGE('',*,*,#160,.F.);
#160 = EDGE_CURVE('',#24,#113,#161,.T.);
#161 = B_SPLINE_CURVE_WITH_KNOTS('',1,(#162,#163),.UNSPECIFIED.,.F.,.F.,
  (2,2),(4.660608282226,8.026108282226),.PIECEWISE_BEZIER_KNOTS.);
#162 = CARTESIAN_POINT('',(-2.308993815946,-0.372774762537,
    4.736552453272));
#163 = CARTESIAN_POINT('',(-2.308993815946,-0.680517167746,
    8.646790459866));
#164 = B_SPLINE_SURFACE_WITH_KNOTS('',1,1,(
    (#165,#166)
    ,(#167,#168
    )),.UNSPECIFIED.,.F.,.F.,.F.,(2,2),(2,2),(-7.419258181109,7.4422),(
    -14.8844,0.),.PIECEWISE_BEZIER_KNOTS.);
#165 = CARTESIAN_POINT('',(-2.308993815946,-8.673528052208,
    8.646790459866));
#166 = CARTESIAN_POINT('',(-2.308993815946,8.673528052208,8.646790459866
    ));
#167 = CARTESIAN_POINT('',(-2.308993815946,-8.673528052208,
    -8.673528052208));
#168 = CARTESIAN_POINT('',(-2.308993815946,8.673528052208,
    -8.673528052208));
#169 = ADVANCED_FACE('',(#170),#176,.T.);
#170 = FACE_BOUND('',#171,.T.);
#171 = EDGE_LOOP('',(#172,#173,#174,#175));
#172 = ORIENTED_EDGE('',*,*,#21,.T.);
#173 = ORIENTED_EDGE('',*,*,#160,.T.);
#174 = ORIENTED_EDGE('',*,*,#130,.T.);
#175 = ORIENTED_EDGE('',*,*,#97,.F.);
#176 = B_SPLINE_SURFACE_WITH_KNOTS('',1,1,(
    (#177,#178)
    ,(#179,#180
  )),.UNSPECIFIED.,.F.,.F.,.F.,(2,2),(2,2),(4.0767,7.4422),(0.,1.9812),
  .PIECEWISE_BEZIER_KNOTS.);
#177 = CARTESIAN_POINT('',(-2.308993815946,-0.372774762537,
    4.736552453272));
#178 = CARTESIAN_POINT('',(0.,-0.372774762537,4.736552453272));
#179 = CARTESIAN_POINT('',(-2.308993815946,-0.680517167746,
    8.646790459866));
#180 = CARTESIAN_POINT('',(0.,-0.680517167746,8.646790459866));
#181 = ADVANCED_FACE('',(#182),#188,.F.);
#182 = FACE_BOUND('',#183,.T.);
#183 = EDGE_LOOP('',(#184,#185,#186,#187));
#184 = ORIENTED_EDGE('',*,*,#91,.T.);
#185 = ORIENTED_EDGE('',*,*,#124,.F.);
#186 = ORIENTED_EDGE('',*,*,#154,.F.);
#187 = ORIENTED_EDGE('',*,*,#42,.F.);
#188 = B_SPLINE_SURFACE_WITH_KNOTS('',1,1,(
    (#189,#190)
    ,(#191,#192
  )),.UNSPECIFIED.,.F.,.F.,.F.,(2,2),(2,2),(4.0767,7.4422),(0.,1.9812),
  .PIECEWISE_BEZIER_KNOTS.);
#189 = CARTESIAN_POINT('',(-2.308993815946,0.372774762537,4.736552453272
    ));
#190 = CARTESIAN_POINT('',(0.,0.372774762537,4.736552453272));
#191 = CARTESIAN_POINT('',(-2.308993815946,0.680517167746,8.646790459866
    ));
#192 = CARTESIAN_POINT('',(0.,0.680517167746,8.646790459866));
#193 = ( GEOMETRIC_REPRESENTATION_CONTEXT(3) 
GLOBAL_UNCERTAINTY_ASSIGNED_CONTEXT((#197)) GLOBAL_UNIT_ASSIGNED_CONTEXT
((#194,#195,#196)) REPRESENTATION_CONTEXT('Context #1',
  '3D Context with UNIT and UNCERTAINTY') );
#194 = ( LENGTH_UNIT() NAMED_UNIT(*) SI_UNIT(.MILLI.,.METRE.) );
#195 = ( NAMED_UNIT(*) PLANE_ANGLE_UNIT() SI_UNIT($,.RADIAN.) );
#196 = ( NAMED_UNIT(*) SI_UNIT($,.STERADIAN.) SOLID_ANGLE_UNIT() );
#197 = UNCERTAINTY_MEASURE_WITH_UNIT(LENGTH_MEASURE(1.E-07),#194,
  'distance_accuracy_value','confusion accuracy');
#198 = PRODUCT_RELATED_PRODUCT_CATEGORY('part',$,(#7));
ENDSEC;
END-ISO-10303-21;
