ISO-10303-21;
HEADER;
FILE_DESCRIPTION(('FreeCAD Model'),'2;1');
FILE_NAME('Open CASCADE Shape Model','2025-05-05T08:17:08',('FreeCAD'),(
    'FreeCAD'),'Open CASCADE STEP processor 7.6','FreeCAD','Unknown');
FILE_SCHEMA(('AUTOMOTIVE_DESIGN { 1 0 10303 214 1 1 1 1 }'));
ENDSEC;
DATA;
#1 = APPLICATION_PROTOCOL_DEFINITION('international standard',
  'automotive_design',2000,#2);
#2 = APPLICATION_CONTEXT(
  'core data for automotive mechanical design processes');
#3 = SHAPE_DEFINITION_REPRESENTATION(#4,#10);
#4 = PRODUCT_DEFINITION_SHAPE('','',#5);
#5 = PRODUCT_DEFINITION('design','',#6,#9);
#6 = PRODUCT_DEFINITION_FORMATION('','',#7);
#7 = PRODUCT('Open CASCADE STEP translator 7.6 1',
  'Open CASCADE STEP translator 7.6 1','',(#8));
#8 = PRODUCT_CONTEXT('',#2,'mechanical');
#9 = PRODUCT_DEFINITION_CONTEXT('part definition',#2,'design');
#10 = ADVANCED_BREP_SHAPE_REPRESENTATION('',(#11,#15),#145);
#11 = AXIS2_PLACEMENT_3D('',#12,#13,#14);
#12 = CARTESIAN_POINT('',(0.,0.,0.));
#13 = DIRECTION('',(0.,0.,1.));
#14 = DIRECTION('',(1.,0.,-0.));
#15 = MANIFOLD_SOLID_BREP('',#16);
#16 = CLOSED_SHELL('',(#17,#51,#85,#115));
#17 = ADVANCED_FACE('',(#18,#32),#46,.T.);
#18 = FACE_BOUND('',#19,.T.);
#19 = EDGE_LOOP('',(#20));
#20 = ORIENTED_EDGE('',*,*,#21,.T.);
#21 = EDGE_CURVE('',#22,#22,#24,.T.);
#22 = VERTEX_POINT('',#23);
#23 = CARTESIAN_POINT('',(0.,4.401023168462,21.393862624468));
#24 = ( BOUNDED_CURVE() B_SPLINE_CURVE(2,(#25,#26,#27,#28,#29,#30,#31),
.UNSPECIFIED.,.T.,.F.) B_SPLINE_CURVE_WITH_KNOTS((1,2,2,2,2,1),(
    -2.094395102393,0.,2.094395102393,4.188790204786,6.28318530718,
8.377580409573),.UNSPECIFIED.) CURVE() GEOMETRIC_REPRESENTATION_ITEM() 
RATIONAL_B_SPLINE_CURVE((1.,0.5,1.,0.5,1.,0.5,1.)) REPRESENTATION_ITEM(
  '') );
#25 = CARTESIAN_POINT('',(0.,4.401023168462,21.393862624468));
#26 = CARTESIAN_POINT('',(37.055257035727,4.401023168462,21.393862624468
    ));
#27 = CARTESIAN_POINT('',(18.527628517864,4.401023168462,-10.69693131223
    ));
#28 = CARTESIAN_POINT('',(5.239985076891E-15,4.401023168462,
    -42.78772524893));
#29 = CARTESIAN_POINT('',(-18.52762851786,4.401023168462,-10.69693131223
    ));
#30 = CARTESIAN_POINT('',(-37.05525703572,4.401023168462,21.393862624468
    ));
#31 = CARTESIAN_POINT('',(0.,4.401023168462,21.393862624468));
#32 = FACE_BOUND('',#33,.T.);
#33 = EDGE_LOOP('',(#34));
#34 = ORIENTED_EDGE('',*,*,#35,.F.);
#35 = EDGE_CURVE('',#36,#36,#38,.T.);
#36 = VERTEX_POINT('',#37);
#37 = CARTESIAN_POINT('',(0.,4.401023168462,9.535550198334));
#38 = ( BOUNDED_CURVE() B_SPLINE_CURVE(2,(#39,#40,#41,#42,#43,#44,#45),
.UNSPECIFIED.,.T.,.F.) B_SPLINE_CURVE_WITH_KNOTS((1,2,2,2,2,1),(
    -2.094395102393,0.,2.094395102393,4.188790204786,6.28318530718,
8.377580409573),.UNSPECIFIED.) CURVE() GEOMETRIC_REPRESENTATION_ITEM() 
RATIONAL_B_SPLINE_CURVE((1.,0.5,1.,0.5,1.,0.5,1.)) REPRESENTATION_ITEM(
  '') );
#39 = CARTESIAN_POINT('',(0.,4.401023168462,9.535550198334));
#40 = CARTESIAN_POINT('',(16.516057421638,4.401023168462,9.535550198334)
  );
#41 = CARTESIAN_POINT('',(8.258028710819,4.401023168462,-4.767775099167)
  );
#42 = CARTESIAN_POINT('',(2.3355362057E-15,4.401023168462,
    -19.07110039666));
#43 = CARTESIAN_POINT('',(-8.258028710819,4.401023168462,-4.767775099167
    ));
#44 = CARTESIAN_POINT('',(-16.51605742163,4.401023168462,9.535550198334)
  );
#45 = CARTESIAN_POINT('',(0.,4.401023168462,9.535550198334));
#46 = B_SPLINE_SURFACE_WITH_KNOTS('',1,1,(
    (#47,#48)
    ,(#49,#50
    )),.UNSPECIFIED.,.F.,.F.,.F.,(2,2),(2,2),(-22.225,22.225),(-22.225,
    22.225),.PIECEWISE_BEZIER_KNOTS.);
#47 = CARTESIAN_POINT('',(-21.39386262446,4.401023168462,-21.39386262446
    ));
#48 = CARTESIAN_POINT('',(21.393862624468,4.401023168462,-21.39386262446
    ));
#49 = CARTESIAN_POINT('',(-21.39386262446,4.401023168462,21.393862624468
    ));
#50 = CARTESIAN_POINT('',(21.393862624468,4.401023168462,21.393862624468
    ));
#51 = ADVANCED_FACE('',(#52,#66),#80,.F.);
#52 = FACE_BOUND('',#53,.T.);
#53 = EDGE_LOOP('',(#54));
#54 = ORIENTED_EDGE('',*,*,#55,.F.);
#55 = EDGE_CURVE('',#56,#56,#58,.T.);
#56 = VERTEX_POINT('',#57);
#57 = CARTESIAN_POINT('',(0.,0.,21.393862624468));
#58 = ( BOUNDED_CURVE() B_SPLINE_CURVE(2,(#59,#60,#61,#62,#63,#64,#65),
.UNSPECIFIED.,.T.,.F.) B_SPLINE_CURVE_WITH_KNOTS((1,2,2,2,2,1),(
    -2.094395102393,0.,2.094395102393,4.188790204786,6.28318530718,
8.377580409573),.UNSPECIFIED.) CURVE() GEOMETRIC_REPRESENTATION_ITEM() 
RATIONAL_B_SPLINE_CURVE((1.,0.5,1.,0.5,1.,0.5,1.)) REPRESENTATION_ITEM(
  '') );
#59 = CARTESIAN_POINT('',(0.,0.,21.393862624468));
#60 = CARTESIAN_POINT('',(37.055257035727,0.,21.393862624468));
#61 = CARTESIAN_POINT('',(18.527628517864,0.,-10.69693131223));
#62 = CARTESIAN_POINT('',(5.239985076891E-15,0.,-42.78772524893));
#63 = CARTESIAN_POINT('',(-18.52762851786,0.,-10.69693131223));
#64 = CARTESIAN_POINT('',(-37.05525703572,0.,21.393862624468));
#65 = CARTESIAN_POINT('',(0.,0.,21.393862624468));
#66 = FACE_BOUND('',#67,.T.);
#67 = EDGE_LOOP('',(#68));
#68 = ORIENTED_EDGE('',*,*,#69,.T.);
#69 = EDGE_CURVE('',#70,#70,#72,.T.);
#70 = VERTEX_POINT('',#71);
#71 = CARTESIAN_POINT('',(0.,0.,9.535550198334));
#72 = ( BOUNDED_CURVE() B_SPLINE_CURVE(2,(#73,#74,#75,#76,#77,#78,#79),
.UNSPECIFIED.,.T.,.F.) B_SPLINE_CURVE_WITH_KNOTS((1,2,2,2,2,1),(
    -2.094395102393,0.,2.094395102393,4.188790204786,6.28318530718,
8.377580409573),.UNSPECIFIED.) CURVE() GEOMETRIC_REPRESENTATION_ITEM() 
RATIONAL_B_SPLINE_CURVE((1.,0.5,1.,0.5,1.,0.5,1.)) REPRESENTATION_ITEM(
  '') );
#73 = CARTESIAN_POINT('',(0.,0.,9.535550198334));
#74 = CARTESIAN_POINT('',(16.516057421638,0.,9.535550198334));
#75 = CARTESIAN_POINT('',(8.258028710819,0.,-4.767775099167));
#76 = CARTESIAN_POINT('',(2.3355362057E-15,0.,-19.07110039666));
#77 = CARTESIAN_POINT('',(-8.258028710819,0.,-4.767775099167));
#78 = CARTESIAN_POINT('',(-16.51605742163,0.,9.535550198334));
#79 = CARTESIAN_POINT('',(0.,0.,9.535550198334));
#80 = B_SPLINE_SURFACE_WITH_KNOTS('',1,1,(
    (#81,#82)
    ,(#83,#84
    )),.UNSPECIFIED.,.F.,.F.,.F.,(2,2),(2,2),(-22.225,22.225),(-22.225,
    22.225),.PIECEWISE_BEZIER_KNOTS.);
#81 = CARTESIAN_POINT('',(-21.39386262446,0.,-21.39386262446));
#82 = CARTESIAN_POINT('',(21.393862624468,0.,-21.39386262446));
#83 = CARTESIAN_POINT('',(-21.39386262446,0.,21.393862624468));
#84 = CARTESIAN_POINT('',(21.393862624468,0.,21.393862624468));
#85 = ADVANCED_FACE('',(#86),#96,.T.);
#86 = FACE_BOUND('',#87,.T.);
#87 = EDGE_LOOP('',(#88,#89,#94,#95));
#88 = ORIENTED_EDGE('',*,*,#21,.F.);
#89 = ORIENTED_EDGE('',*,*,#90,.T.);
#90 = EDGE_CURVE('',#22,#56,#91,.T.);
#91 = B_SPLINE_CURVE_WITH_KNOTS('',1,(#92,#93),.UNSPECIFIED.,.F.,.F.,(2,
    2),(0.,4.572),.PIECEWISE_BEZIER_KNOTS.);
#92 = CARTESIAN_POINT('',(2.619992538445E-15,4.401023168462,
    21.393862624468));
#93 = CARTESIAN_POINT('',(2.619992538445E-15,0.,21.393862624468));
#94 = ORIENTED_EDGE('',*,*,#55,.T.);
#95 = ORIENTED_EDGE('',*,*,#90,.F.);
#96 = ( BOUNDED_SURFACE() B_SPLINE_SURFACE(2,1,(
    (#97,#98)
    ,(#99,#100)
    ,(#101,#102)
    ,(#103,#104)
    ,(#105,#106)
    ,(#107,#108)
    ,(#109,#110)
    ,(#111,#112)
,(#113,#114
    )),.UNSPECIFIED.,.T.,.F.,.F.) B_SPLINE_SURFACE_WITH_KNOTS((3,2,2,2,3
    ),(2,2),(3.14159265359,4.188790204786,6.28318530718,8.377580409573,
    9.424777960769),(0.,4.572),.UNSPECIFIED.) 
GEOMETRIC_REPRESENTATION_ITEM() RATIONAL_B_SPLINE_SURFACE((
    (0.75,0.75)
    ,(0.75,0.75)
    ,(1.,1.)
    ,(0.5,0.5)
    ,(1.,1.)
    ,(0.5,0.5)
    ,(1.,1.)
    ,(0.75,0.75)
,(0.75,0.75))) REPRESENTATION_ITEM('') SURFACE() );
#97 = CARTESIAN_POINT('',(0.,4.401023168462,21.393862624468));
#98 = CARTESIAN_POINT('',(0.,0.,21.393862624468));
#99 = CARTESIAN_POINT('',(-12.35175234524,4.401023168462,21.393862624468
    ));
#100 = CARTESIAN_POINT('',(-12.35175234524,0.,21.393862624468));
#101 = CARTESIAN_POINT('',(-18.52762851786,4.401023168462,
    10.696931312234));
#102 = CARTESIAN_POINT('',(-18.52762851786,0.,10.696931312234));
#103 = CARTESIAN_POINT('',(-37.05525703572,4.401023168462,
    -21.39386262446));
#104 = CARTESIAN_POINT('',(-37.05525703572,0.,-21.39386262446));
#105 = CARTESIAN_POINT('',(0.,4.401023168462,-21.39386262446));
#106 = CARTESIAN_POINT('',(0.,0.,-21.39386262446));
#107 = CARTESIAN_POINT('',(37.055257035727,4.401023168462,
    -21.39386262446));
#108 = CARTESIAN_POINT('',(37.055257035727,0.,-21.39386262446));
#109 = CARTESIAN_POINT('',(18.527628517864,4.401023168462,
    10.696931312234));
#110 = CARTESIAN_POINT('',(18.527628517864,0.,10.696931312234));
#111 = CARTESIAN_POINT('',(12.351752345242,4.401023168462,
    21.393862624468));
#112 = CARTESIAN_POINT('',(12.351752345242,0.,21.393862624468));
#113 = CARTESIAN_POINT('',(0.,4.401023168462,21.393862624468));
#114 = CARTESIAN_POINT('',(0.,0.,21.393862624468));
#115 = ADVANCED_FACE('',(#116),#126,.F.);
#116 = FACE_BOUND('',#117,.F.);
#117 = EDGE_LOOP('',(#118,#119,#124,#125));
#118 = ORIENTED_EDGE('',*,*,#35,.F.);
#119 = ORIENTED_EDGE('',*,*,#120,.T.);
#120 = EDGE_CURVE('',#36,#70,#121,.T.);
#121 = B_SPLINE_CURVE_WITH_KNOTS('',1,(#122,#123),.UNSPECIFIED.,.F.,.F.,
  (2,2),(0.,4.572),.PIECEWISE_BEZIER_KNOTS.);
#122 = CARTESIAN_POINT('',(1.16776810285E-15,4.401023168462,
    9.535550198334));
#123 = CARTESIAN_POINT('',(1.16776810285E-15,0.,9.535550198334));
#124 = ORIENTED_EDGE('',*,*,#69,.T.);
#125 = ORIENTED_EDGE('',*,*,#120,.F.);
#126 = ( BOUNDED_SURFACE() B_SPLINE_SURFACE(2,1,(
    (#127,#128)
    ,(#129,#130)
    ,(#131,#132)
    ,(#133,#134)
    ,(#135,#136)
    ,(#137,#138)
    ,(#139,#140)
    ,(#141,#142)
,(#143,#144
    )),.UNSPECIFIED.,.T.,.F.,.F.) B_SPLINE_SURFACE_WITH_KNOTS((3,2,2,2,3
    ),(2,2),(3.14159265359,4.188790204786,6.28318530718,8.377580409573,
    9.424777960769),(0.,4.572),.UNSPECIFIED.) 
GEOMETRIC_REPRESENTATION_ITEM() RATIONAL_B_SPLINE_SURFACE((
    (0.75,0.75)
    ,(0.75,0.75)
    ,(1.,1.)
    ,(0.5,0.5)
    ,(1.,1.)
    ,(0.5,0.5)
    ,(1.,1.)
    ,(0.75,0.75)
,(0.75,0.75))) REPRESENTATION_ITEM('') SURFACE() );
#127 = CARTESIAN_POINT('',(0.,4.401023168462,9.535550198334));
#128 = CARTESIAN_POINT('',(0.,0.,9.535550198334));
#129 = CARTESIAN_POINT('',(-5.505352473879,4.401023168462,9.535550198334
    ));
#130 = CARTESIAN_POINT('',(-5.505352473879,0.,9.535550198334));
#131 = CARTESIAN_POINT('',(-8.258028710819,4.401023168462,4.767775099167
    ));
#132 = CARTESIAN_POINT('',(-8.258028710819,0.,4.767775099167));
#133 = CARTESIAN_POINT('',(-16.51605742163,4.401023168462,
    -9.535550198334));
#134 = CARTESIAN_POINT('',(-16.51605742163,0.,-9.535550198334));
#135 = CARTESIAN_POINT('',(0.,4.401023168462,-9.535550198334));
#136 = CARTESIAN_POINT('',(0.,0.,-9.535550198334));
#137 = CARTESIAN_POINT('',(16.516057421638,4.401023168462,
    -9.535550198334));
#138 = CARTESIAN_POINT('',(16.516057421638,0.,-9.535550198334));
#139 = CARTESIAN_POINT('',(8.258028710819,4.401023168462,4.767775099167)
  );
#140 = CARTESIAN_POINT('',(8.258028710819,0.,4.767775099167));
#141 = CARTESIAN_POINT('',(5.505352473879,4.401023168462,9.535550198334)
  );
#142 = CARTESIAN_POINT('',(5.505352473879,0.,9.535550198334));
#143 = CARTESIAN_POINT('',(0.,4.401023168462,9.535550198334));
#144 = CARTESIAN_POINT('',(0.,0.,9.535550198334));
#145 = ( GEOMETRIC_REPRESENTATION_CONTEXT(3) 
GLOBAL_UNCERTAINTY_ASSIGNED_CONTEXT((#149)) GLOBAL_UNIT_ASSIGNED_CONTEXT
((#146,#147,#148)) REPRESENTATION_CONTEXT('Context #1',
  '3D Context with UNIT and UNCERTAINTY') );
#146 = ( LENGTH_UNIT() NAMED_UNIT(*) SI_UNIT(.MILLI.,.METRE.) );
#147 = ( NAMED_UNIT(*) PLANE_ANGLE_UNIT() SI_UNIT($,.RADIAN.) );
#148 = ( NAMED_UNIT(*) SI_UNIT($,.STERADIAN.) SOLID_ANGLE_UNIT() );
#149 = UNCERTAINTY_MEASURE_WITH_UNIT(LENGTH_MEASURE(1.E-05),#146,
  'distance_accuracy_value','confusion accuracy');
#150 = PRODUCT_RELATED_PRODUCT_CATEGORY('part',$,(#7));
ENDSEC;
END-ISO-10303-21;
