ISO-10303-21;
HEADER;
FILE_DESCRIPTION(('FreeCAD Model'),'2;1');
FILE_NAME('Open CASCADE Shape Model','2025-05-05T08:16:32',('FreeCAD'),(
    'FreeCAD'),'Open CASCADE STEP processor 7.6','FreeCAD','Unknown');
FILE_SCHEMA(('AUTOMOTIVE_DESIGN { 1 0 10303 214 1 1 1 1 }'));
ENDSEC;
DATA;
#1 = APPLICATION_PROTOCOL_DEFINITION('international standard',
  'automotive_design',2000,#2);
#2 = APPLICATION_CONTEXT(
  'core data for automotive mechanical design processes');
#3 = SHAPE_DEFINITION_REPRESENTATION(#4,#10);
#4 = PRODUCT_DEFINITION_SHAPE('','',#5);
#5 = PRODUCT_DEFINITION('design','',#6,#9);
#6 = PRODUCT_DEFINITION_FORMATION('','',#7);
#7 = PRODUCT('Open CASCADE STEP translator 7.6 1',
  'Open CASCADE STEP translator 7.6 1','',(#8));
#8 = PRODUCT_CONTEXT('',#2,'mechanical');
#9 = PRODUCT_DEFINITION_CONTEXT('part definition',#2,'design');
#10 = ADVANCED_BREP_SHAPE_REPRESENTATION('',(#11,#15),#145);
#11 = AXIS2_PLACEMENT_3D('',#12,#13,#14);
#12 = CARTESIAN_POINT('',(0.,0.,0.));
#13 = DIRECTION('',(0.,0.,1.));
#14 = DIRECTION('',(1.,0.,-0.));
#15 = MANIFOLD_SOLID_BREP('',#16);
#16 = CLOSED_SHELL('',(#17,#51,#85,#115));
#17 = ADVANCED_FACE('',(#18,#32),#46,.T.);
#18 = FACE_BOUND('',#19,.T.);
#19 = EDGE_LOOP('',(#20));
#20 = ORIENTED_EDGE('',*,*,#21,.T.);
#21 = EDGE_CURVE('',#22,#22,#24,.T.);
#22 = VERTEX_POINT('',#23);
#23 = CARTESIAN_POINT('',(0.,6.262525162767,30.442830652339));
#24 = ( BOUNDED_CURVE() B_SPLINE_CURVE(2,(#25,#26,#27,#28,#29,#30,#31),
.UNSPECIFIED.,.T.,.F.) B_SPLINE_CURVE_WITH_KNOTS((1,2,2,2,2,1),(
    -2.094395102393,0.,2.094395102393,4.188790204786,6.28318530718,
8.377580409573),.UNSPECIFIED.) CURVE() GEOMETRIC_REPRESENTATION_ITEM() 
RATIONAL_B_SPLINE_CURVE((1.,0.5,1.,0.5,1.,0.5,1.)) REPRESENTATION_ITEM(
  '') );
#25 = CARTESIAN_POINT('',(0.,6.262525162767,30.442830652339));
#26 = CARTESIAN_POINT('',(52.728529416067,6.262525162767,30.442830652339
    ));
#27 = CARTESIAN_POINT('',(26.364264708033,6.262525162767,-15.22141532617
    ));
#28 = CARTESIAN_POINT('',(7.456343023074E-15,6.262525162767,
    -60.88566130467));
#29 = CARTESIAN_POINT('',(-26.36426470803,6.262525162767,-15.22141532617
    ));
#30 = CARTESIAN_POINT('',(-52.72852941606,6.262525162767,30.442830652339
    ));
#31 = CARTESIAN_POINT('',(0.,6.262525162767,30.442830652339));
#32 = FACE_BOUND('',#33,.T.);
#33 = EDGE_LOOP('',(#34));
#34 = ORIENTED_EDGE('',*,*,#35,.F.);
#35 = EDGE_CURVE('',#36,#36,#38,.T.);
#36 = VERTEX_POINT('',#37);
#37 = CARTESIAN_POINT('',(0.,6.262525162767,13.568804519328));
#38 = ( BOUNDED_CURVE() B_SPLINE_CURVE(2,(#39,#40,#41,#42,#43,#44,#45),
.UNSPECIFIED.,.T.,.F.) B_SPLINE_CURVE_WITH_KNOTS((1,2,2,2,2,1),(
    -2.094395102393,0.,2.094395102393,4.188790204786,6.28318530718,
8.377580409573),.UNSPECIFIED.) CURVE() GEOMETRIC_REPRESENTATION_ITEM() 
RATIONAL_B_SPLINE_CURVE((1.,0.5,1.,0.5,1.,0.5,1.)) REPRESENTATION_ITEM(
  '') );
#39 = CARTESIAN_POINT('',(0.,6.262525162767,13.568804519328));
#40 = CARTESIAN_POINT('',(23.501858825447,6.262525162767,13.568804519328
    ));
#41 = CARTESIAN_POINT('',(11.750929412723,6.262525162767,-6.784402259664
    ));
#42 = CARTESIAN_POINT('',(3.32339860457E-15,6.262525162767,
    -27.13760903865));
#43 = CARTESIAN_POINT('',(-11.75092941272,6.262525162767,-6.784402259664
    ));
#44 = CARTESIAN_POINT('',(-23.50185882544,6.262525162767,13.568804519328
    ));
#45 = CARTESIAN_POINT('',(0.,6.262525162767,13.568804519328));
#46 = B_SPLINE_SURFACE_WITH_KNOTS('',1,1,(
    (#47,#48)
    ,(#49,#50
    )),.UNSPECIFIED.,.F.,.F.,.F.,(2,2),(2,2),(-22.225,22.225),(-22.225,
    22.225),.PIECEWISE_BEZIER_KNOTS.);
#47 = CARTESIAN_POINT('',(-30.44283065233,6.262525162767,-30.44283065233
    ));
#48 = CARTESIAN_POINT('',(30.442830652339,6.262525162767,-30.44283065233
    ));
#49 = CARTESIAN_POINT('',(-30.44283065233,6.262525162767,30.442830652339
    ));
#50 = CARTESIAN_POINT('',(30.442830652339,6.262525162767,30.442830652339
    ));
#51 = ADVANCED_FACE('',(#52,#66),#80,.F.);
#52 = FACE_BOUND('',#53,.T.);
#53 = EDGE_LOOP('',(#54));
#54 = ORIENTED_EDGE('',*,*,#55,.F.);
#55 = EDGE_CURVE('',#56,#56,#58,.T.);
#56 = VERTEX_POINT('',#57);
#57 = CARTESIAN_POINT('',(0.,0.,30.442830652339));
#58 = ( BOUNDED_CURVE() B_SPLINE_CURVE(2,(#59,#60,#61,#62,#63,#64,#65),
.UNSPECIFIED.,.T.,.F.) B_SPLINE_CURVE_WITH_KNOTS((1,2,2,2,2,1),(
    -2.094395102393,0.,2.094395102393,4.188790204786,6.28318530718,
8.377580409573),.UNSPECIFIED.) CURVE() GEOMETRIC_REPRESENTATION_ITEM() 
RATIONAL_B_SPLINE_CURVE((1.,0.5,1.,0.5,1.,0.5,1.)) REPRESENTATION_ITEM(
  '') );
#59 = CARTESIAN_POINT('',(0.,0.,30.442830652339));
#60 = CARTESIAN_POINT('',(52.728529416067,0.,30.442830652339));
#61 = CARTESIAN_POINT('',(26.364264708033,0.,-15.22141532617));
#62 = CARTESIAN_POINT('',(7.456343023074E-15,0.,-60.88566130467));
#63 = CARTESIAN_POINT('',(-26.36426470803,0.,-15.22141532617));
#64 = CARTESIAN_POINT('',(-52.72852941606,0.,30.442830652339));
#65 = CARTESIAN_POINT('',(0.,0.,30.442830652339));
#66 = FACE_BOUND('',#67,.T.);
#67 = EDGE_LOOP('',(#68));
#68 = ORIENTED_EDGE('',*,*,#69,.T.);
#69 = EDGE_CURVE('',#70,#70,#72,.T.);
#70 = VERTEX_POINT('',#71);
#71 = CARTESIAN_POINT('',(0.,0.,13.568804519328));
#72 = ( BOUNDED_CURVE() B_SPLINE_CURVE(2,(#73,#74,#75,#76,#77,#78,#79),
.UNSPECIFIED.,.T.,.F.) B_SPLINE_CURVE_WITH_KNOTS((1,2,2,2,2,1),(
    -2.094395102393,0.,2.094395102393,4.188790204786,6.28318530718,
8.377580409573),.UNSPECIFIED.) CURVE() GEOMETRIC_REPRESENTATION_ITEM() 
RATIONAL_B_SPLINE_CURVE((1.,0.5,1.,0.5,1.,0.5,1.)) REPRESENTATION_ITEM(
  '') );
#73 = CARTESIAN_POINT('',(0.,0.,13.568804519328));
#74 = CARTESIAN_POINT('',(23.501858825447,0.,13.568804519328));
#75 = CARTESIAN_POINT('',(11.750929412723,0.,-6.784402259664));
#76 = CARTESIAN_POINT('',(3.32339860457E-15,0.,-27.13760903865));
#77 = CARTESIAN_POINT('',(-11.75092941272,0.,-6.784402259664));
#78 = CARTESIAN_POINT('',(-23.50185882544,0.,13.568804519328));
#79 = CARTESIAN_POINT('',(0.,0.,13.568804519328));
#80 = B_SPLINE_SURFACE_WITH_KNOTS('',1,1,(
    (#81,#82)
    ,(#83,#84
    )),.UNSPECIFIED.,.F.,.F.,.F.,(2,2),(2,2),(-22.225,22.225),(-22.225,
    22.225),.PIECEWISE_BEZIER_KNOTS.);
#81 = CARTESIAN_POINT('',(-30.44283065233,0.,-30.44283065233));
#82 = CARTESIAN_POINT('',(30.442830652339,0.,-30.44283065233));
#83 = CARTESIAN_POINT('',(-30.44283065233,0.,30.442830652339));
#84 = CARTESIAN_POINT('',(30.442830652339,0.,30.442830652339));
#85 = ADVANCED_FACE('',(#86),#96,.T.);
#86 = FACE_BOUND('',#87,.T.);
#87 = EDGE_LOOP('',(#88,#89,#94,#95));
#88 = ORIENTED_EDGE('',*,*,#21,.F.);
#89 = ORIENTED_EDGE('',*,*,#90,.T.);
#90 = EDGE_CURVE('',#22,#56,#91,.T.);
#91 = B_SPLINE_CURVE_WITH_KNOTS('',1,(#92,#93),.UNSPECIFIED.,.F.,.F.,(2,
    2),(0.,4.572),.PIECEWISE_BEZIER_KNOTS.);
#92 = CARTESIAN_POINT('',(3.728171511537E-15,6.262525162767,
    30.442830652339));
#93 = CARTESIAN_POINT('',(3.728171511537E-15,0.,30.442830652339));
#94 = ORIENTED_EDGE('',*,*,#55,.T.);
#95 = ORIENTED_EDGE('',*,*,#90,.F.);
#96 = ( BOUNDED_SURFACE() B_SPLINE_SURFACE(2,1,(
    (#97,#98)
    ,(#99,#100)
    ,(#101,#102)
    ,(#103,#104)
    ,(#105,#106)
    ,(#107,#108)
    ,(#109,#110)
    ,(#111,#112)
,(#113,#114
    )),.UNSPECIFIED.,.T.,.F.,.F.) B_SPLINE_SURFACE_WITH_KNOTS((3,2,2,2,3
    ),(2,2),(3.14159265359,4.188790204786,6.28318530718,8.377580409573,
    9.424777960769),(0.,4.572),.UNSPECIFIED.) 
GEOMETRIC_REPRESENTATION_ITEM() RATIONAL_B_SPLINE_SURFACE((
    (0.75,0.75)
    ,(0.75,0.75)
    ,(1.,1.)
    ,(0.5,0.5)
    ,(1.,1.)
    ,(0.5,0.5)
    ,(1.,1.)
    ,(0.75,0.75)
,(0.75,0.75))) REPRESENTATION_ITEM('') SURFACE() );
#97 = CARTESIAN_POINT('',(0.,6.262525162767,30.442830652339));
#98 = CARTESIAN_POINT('',(0.,0.,30.442830652339));
#99 = CARTESIAN_POINT('',(-17.57617647202,6.262525162767,30.442830652339
    ));
#100 = CARTESIAN_POINT('',(-17.57617647202,0.,30.442830652339));
#101 = CARTESIAN_POINT('',(-26.36426470803,6.262525162767,15.22141532617
    ));
#102 = CARTESIAN_POINT('',(-26.36426470803,0.,15.22141532617));
#103 = CARTESIAN_POINT('',(-52.72852941606,6.262525162767,
    -30.44283065233));
#104 = CARTESIAN_POINT('',(-52.72852941606,0.,-30.44283065233));
#105 = CARTESIAN_POINT('',(0.,6.262525162767,-30.44283065233));
#106 = CARTESIAN_POINT('',(0.,0.,-30.44283065233));
#107 = CARTESIAN_POINT('',(52.728529416067,6.262525162767,
    -30.44283065233));
#108 = CARTESIAN_POINT('',(52.728529416067,0.,-30.44283065233));
#109 = CARTESIAN_POINT('',(26.364264708033,6.262525162767,15.22141532617
    ));
#110 = CARTESIAN_POINT('',(26.364264708033,0.,15.22141532617));
#111 = CARTESIAN_POINT('',(17.576176472022,6.262525162767,
    30.442830652339));
#112 = CARTESIAN_POINT('',(17.576176472022,0.,30.442830652339));
#113 = CARTESIAN_POINT('',(0.,6.262525162767,30.442830652339));
#114 = CARTESIAN_POINT('',(0.,0.,30.442830652339));
#115 = ADVANCED_FACE('',(#116),#126,.F.);
#116 = FACE_BOUND('',#117,.F.);
#117 = EDGE_LOOP('',(#118,#119,#124,#125));
#118 = ORIENTED_EDGE('',*,*,#35,.F.);
#119 = ORIENTED_EDGE('',*,*,#120,.T.);
#120 = EDGE_CURVE('',#36,#70,#121,.T.);
#121 = B_SPLINE_CURVE_WITH_KNOTS('',1,(#122,#123),.UNSPECIFIED.,.F.,.F.,
  (2,2),(0.,4.572),.PIECEWISE_BEZIER_KNOTS.);
#122 = CARTESIAN_POINT('',(1.661699302285E-15,6.262525162767,
    13.568804519328));
#123 = CARTESIAN_POINT('',(1.661699302285E-15,0.,13.568804519328));
#124 = ORIENTED_EDGE('',*,*,#69,.T.);
#125 = ORIENTED_EDGE('',*,*,#120,.F.);
#126 = ( BOUNDED_SURFACE() B_SPLINE_SURFACE(2,1,(
    (#127,#128)
    ,(#129,#130)
    ,(#131,#132)
    ,(#133,#134)
    ,(#135,#136)
    ,(#137,#138)
    ,(#139,#140)
    ,(#141,#142)
,(#143,#144
    )),.UNSPECIFIED.,.T.,.F.,.F.) B_SPLINE_SURFACE_WITH_KNOTS((3,2,2,2,3
    ),(2,2),(3.14159265359,4.188790204786,6.28318530718,8.377580409573,
    9.424777960769),(0.,4.572),.UNSPECIFIED.) 
GEOMETRIC_REPRESENTATION_ITEM() RATIONAL_B_SPLINE_SURFACE((
    (0.75,0.75)
    ,(0.75,0.75)
    ,(1.,1.)
    ,(0.5,0.5)
    ,(1.,1.)
    ,(0.5,0.5)
    ,(1.,1.)
    ,(0.75,0.75)
,(0.75,0.75))) REPRESENTATION_ITEM('') SURFACE() );
#127 = CARTESIAN_POINT('',(0.,6.262525162767,13.568804519328));
#128 = CARTESIAN_POINT('',(0.,0.,13.568804519328));
#129 = CARTESIAN_POINT('',(-7.833952941816,6.262525162767,
    13.568804519328));
#130 = CARTESIAN_POINT('',(-7.833952941816,0.,13.568804519328));
#131 = CARTESIAN_POINT('',(-11.75092941272,6.262525162767,6.784402259664
    ));
#132 = CARTESIAN_POINT('',(-11.75092941272,0.,6.784402259664));
#133 = CARTESIAN_POINT('',(-23.50185882544,6.262525162767,
    -13.56880451932));
#134 = CARTESIAN_POINT('',(-23.50185882544,0.,-13.56880451932));
#135 = CARTESIAN_POINT('',(0.,6.262525162767,-13.56880451932));
#136 = CARTESIAN_POINT('',(0.,0.,-13.56880451932));
#137 = CARTESIAN_POINT('',(23.501858825447,6.262525162767,
    -13.56880451932));
#138 = CARTESIAN_POINT('',(23.501858825447,0.,-13.56880451932));
#139 = CARTESIAN_POINT('',(11.750929412723,6.262525162767,6.784402259664
    ));
#140 = CARTESIAN_POINT('',(11.750929412723,0.,6.784402259664));
#141 = CARTESIAN_POINT('',(7.833952941816,6.262525162767,13.568804519328
    ));
#142 = CARTESIAN_POINT('',(7.833952941816,0.,13.568804519328));
#143 = CARTESIAN_POINT('',(0.,6.262525162767,13.568804519328));
#144 = CARTESIAN_POINT('',(0.,0.,13.568804519328));
#145 = ( GEOMETRIC_REPRESENTATION_CONTEXT(3) 
GLOBAL_UNCERTAINTY_ASSIGNED_CONTEXT((#149)) GLOBAL_UNIT_ASSIGNED_CONTEXT
((#146,#147,#148)) REPRESENTATION_CONTEXT('Context #1',
  '3D Context with UNIT and UNCERTAINTY') );
#146 = ( LENGTH_UNIT() NAMED_UNIT(*) SI_UNIT(.MILLI.,.METRE.) );
#147 = ( NAMED_UNIT(*) PLANE_ANGLE_UNIT() SI_UNIT($,.RADIAN.) );
#148 = ( NAMED_UNIT(*) SI_UNIT($,.STERADIAN.) SOLID_ANGLE_UNIT() );
#149 = UNCERTAINTY_MEASURE_WITH_UNIT(LENGTH_MEASURE(1.E-05),#146,
  'distance_accuracy_value','confusion accuracy');
#150 = PRODUCT_RELATED_PRODUCT_CATEGORY('part',$,(#7));
ENDSEC;
END-ISO-10303-21;
