ISO-10303-21;
HEADER;
FILE_DESCRIPTION(('FreeCAD Model'),'2;1');
FILE_NAME('Open CASCADE Shape Model','2025-05-05T04:40:17',('FreeCAD'),(
    'FreeCAD'),'Open CASCADE STEP processor 7.6','FreeCAD','Unknown');
FILE_SCHEMA(('AUTOMOTIVE_DESIGN { 1 0 10303 214 1 1 1 1 }'));
ENDSEC;
DATA;
#1 = APPLICATION_PROTOCOL_DEFINITION('international standard',
  'automotive_design',2000,#2);
#2 = APPLICATION_CONTEXT(
  'core data for automotive mechanical design processes');
#3 = SHAPE_DEFINITION_REPRESENTATION(#4,#10);
#4 = PRODUCT_DEFINITION_SHAPE('','',#5);
#5 = PRODUCT_DEFINITION('design','',#6,#9);
#6 = PRODUCT_DEFINITION_FORMATION('','',#7);
#7 = PRODUCT('Open CASCADE STEP translator 7.6 1',
  'Open CASCADE STEP translator 7.6 1','',(#8));
#8 = PRODUCT_CONTEXT('',#2,'mechanical');
#9 = PRODUCT_DEFINITION_CONTEXT('part definition',#2,'design');
#10 = ADVANCED_BREP_SHAPE_REPRESENTATION('',(#11,#15),#273);
#11 = AXIS2_PLACEMENT_3D('',#12,#13,#14);
#12 = CARTESIAN_POINT('',(0.,0.,0.));
#13 = DIRECTION('',(0.,0.,1.));
#14 = DIRECTION('',(1.,0.,-0.));
#15 = MANIFOLD_SOLID_BREP('',#16);
#16 = CLOSED_SHELL('',(#17,#53,#81,#109,#137,#165,#193,#221,#241,#257));
#17 = ADVANCED_FACE('',(#18),#48,.F.);
#18 = FACE_BOUND('',#19,.F.);
#19 = EDGE_LOOP('',(#20,#29,#36,#43));
#20 = ORIENTED_EDGE('',*,*,#21,.T.);
#21 = EDGE_CURVE('',#22,#24,#26,.T.);
#22 = VERTEX_POINT('',#23);
#23 = CARTESIAN_POINT('',(-16.46435602032,20.141395531524,0.));
#24 = VERTEX_POINT('',#25);
#25 = CARTESIAN_POINT('',(-16.46435602032,20.141395531524,5.158831553033
    ));
#26 = B_SPLINE_CURVE_WITH_KNOTS('',1,(#27,#28),.UNSPECIFIED.,.F.,.F.,(2,
    2),(0.,4.7),.PIECEWISE_BEZIER_KNOTS.);
#27 = CARTESIAN_POINT('',(-16.46435602032,20.141395531524,0.));
#28 = CARTESIAN_POINT('',(-16.46435602032,20.141395531524,5.158831553033
    ));
#29 = ORIENTED_EDGE('',*,*,#30,.T.);
#30 = EDGE_CURVE('',#24,#31,#33,.T.);
#31 = VERTEX_POINT('',#32);
#32 = CARTESIAN_POINT('',(-16.46435602032,-20.14139553152,5.158831553033
    ));
#33 = B_SPLINE_CURVE_WITH_KNOTS('',1,(#34,#35),.UNSPECIFIED.,.F.,.F.,(2,
    2),(0.,36.7),.PIECEWISE_BEZIER_KNOTS.);
#34 = CARTESIAN_POINT('',(-16.46435602032,20.141395531524,5.158831553033
    ));
#35 = CARTESIAN_POINT('',(-16.46435602032,-20.14139553152,5.158831553033
    ));
#36 = ORIENTED_EDGE('',*,*,#37,.F.);
#37 = EDGE_CURVE('',#38,#31,#40,.T.);
#38 = VERTEX_POINT('',#39);
#39 = CARTESIAN_POINT('',(-16.46435602032,-20.14139553152,0.));
#40 = B_SPLINE_CURVE_WITH_KNOTS('',1,(#41,#42),.UNSPECIFIED.,.F.,.F.,(2,
    2),(0.,4.7),.PIECEWISE_BEZIER_KNOTS.);
#41 = CARTESIAN_POINT('',(-16.46435602032,-20.14139553152,0.));
#42 = CARTESIAN_POINT('',(-16.46435602032,-20.14139553152,5.158831553033
    ));
#43 = ORIENTED_EDGE('',*,*,#44,.F.);
#44 = EDGE_CURVE('',#22,#38,#45,.T.);
#45 = B_SPLINE_CURVE_WITH_KNOTS('',1,(#46,#47),.UNSPECIFIED.,.F.,.F.,(2,
    2),(0.,36.7),.PIECEWISE_BEZIER_KNOTS.);
#46 = CARTESIAN_POINT('',(-16.46435602032,20.141395531524,0.));
#47 = CARTESIAN_POINT('',(-16.46435602032,-20.14139553152,0.));
#48 = B_SPLINE_SURFACE_WITH_KNOTS('',1,1,(
    (#49,#50)
    ,(#51,#52
    )),.UNSPECIFIED.,.F.,.F.,.F.,(2,2),(2,2),(0.,36.7),(-4.7,0.),
  .PIECEWISE_BEZIER_KNOTS.);
#49 = CARTESIAN_POINT('',(-16.46435602032,20.141395531524,5.158831553033
    ));
#50 = CARTESIAN_POINT('',(-16.46435602032,20.141395531524,0.));
#51 = CARTESIAN_POINT('',(-16.46435602032,-20.14139553152,5.158831553033
    ));
#52 = CARTESIAN_POINT('',(-16.46435602032,-20.14139553152,0.));
#53 = ADVANCED_FACE('',(#54),#76,.F.);
#54 = FACE_BOUND('',#55,.F.);
#55 = EDGE_LOOP('',(#56,#63,#70,#75));
#56 = ORIENTED_EDGE('',*,*,#57,.F.);
#57 = EDGE_CURVE('',#58,#22,#60,.T.);
#58 = VERTEX_POINT('',#59);
#59 = CARTESIAN_POINT('',(-3.292871204064,20.141395531524,0.));
#60 = B_SPLINE_CURVE_WITH_KNOTS('',1,(#61,#62),.UNSPECIFIED.,.F.,.F.,(2,
    2),(18.,30.),.PIECEWISE_BEZIER_KNOTS.);
#61 = CARTESIAN_POINT('',(-3.292871204064,20.141395531524,0.));
#62 = CARTESIAN_POINT('',(-16.46435602032,20.141395531524,0.));
#63 = ORIENTED_EDGE('',*,*,#64,.T.);
#64 = EDGE_CURVE('',#58,#65,#67,.T.);
#65 = VERTEX_POINT('',#66);
#66 = CARTESIAN_POINT('',(-3.292871204064,20.141395531524,5.158831553033
    ));
#67 = B_SPLINE_CURVE_WITH_KNOTS('',1,(#68,#69),.UNSPECIFIED.,.F.,.F.,(2,
    2),(0.,4.7),.PIECEWISE_BEZIER_KNOTS.);
#68 = CARTESIAN_POINT('',(-3.292871204064,20.141395531524,0.));
#69 = CARTESIAN_POINT('',(-3.292871204064,20.141395531524,5.158831553033
    ));
#70 = ORIENTED_EDGE('',*,*,#71,.T.);
#71 = EDGE_CURVE('',#65,#24,#72,.T.);
#72 = B_SPLINE_CURVE_WITH_KNOTS('',1,(#73,#74),.UNSPECIFIED.,.F.,.F.,(2,
    2),(18.,30.),.PIECEWISE_BEZIER_KNOTS.);
#73 = CARTESIAN_POINT('',(-3.292871204064,20.141395531524,5.158831553033
    ));
#74 = CARTESIAN_POINT('',(-16.46435602032,20.141395531524,5.158831553033
    ));
#75 = ORIENTED_EDGE('',*,*,#21,.F.);
#76 = B_SPLINE_SURFACE_WITH_KNOTS('',1,1,(
    (#77,#78)
    ,(#79,#80
    )),.UNSPECIFIED.,.F.,.F.,.F.,(2,2),(2,2),(18.,30.),(-4.7,0.),
  .PIECEWISE_BEZIER_KNOTS.);
#77 = CARTESIAN_POINT('',(-3.292871204064,20.141395531524,5.158831553033
    ));
#78 = CARTESIAN_POINT('',(-3.292871204064,20.141395531524,0.));
#79 = CARTESIAN_POINT('',(-16.46435602032,20.141395531524,5.158831553033
    ));
#80 = CARTESIAN_POINT('',(-16.46435602032,20.141395531524,0.));
#81 = ADVANCED_FACE('',(#82),#104,.F.);
#82 = FACE_BOUND('',#83,.F.);
#83 = EDGE_LOOP('',(#84,#85,#92,#99));
#84 = ORIENTED_EDGE('',*,*,#37,.T.);
#85 = ORIENTED_EDGE('',*,*,#86,.T.);
#86 = EDGE_CURVE('',#31,#87,#89,.T.);
#87 = VERTEX_POINT('',#88);
#88 = CARTESIAN_POINT('',(16.46435602032,-20.14139553152,5.158831553033)
  );
#89 = B_SPLINE_CURVE_WITH_KNOTS('',1,(#90,#91),.UNSPECIFIED.,.F.,.F.,(2,
    2),(0.,30.),.PIECEWISE_BEZIER_KNOTS.);
#90 = CARTESIAN_POINT('',(-16.46435602032,-20.14139553152,5.158831553033
    ));
#91 = CARTESIAN_POINT('',(16.46435602032,-20.14139553152,5.158831553033)
  );
#92 = ORIENTED_EDGE('',*,*,#93,.F.);
#93 = EDGE_CURVE('',#94,#87,#96,.T.);
#94 = VERTEX_POINT('',#95);
#95 = CARTESIAN_POINT('',(16.46435602032,-20.14139553152,0.));
#96 = B_SPLINE_CURVE_WITH_KNOTS('',1,(#97,#98),.UNSPECIFIED.,.F.,.F.,(2,
    2),(0.,4.7),.PIECEWISE_BEZIER_KNOTS.);
#97 = CARTESIAN_POINT('',(16.46435602032,-20.14139553152,0.));
#98 = CARTESIAN_POINT('',(16.46435602032,-20.14139553152,5.158831553033)
  );
#99 = ORIENTED_EDGE('',*,*,#100,.F.);
#100 = EDGE_CURVE('',#38,#94,#101,.T.);
#101 = B_SPLINE_CURVE_WITH_KNOTS('',1,(#102,#103),.UNSPECIFIED.,.F.,.F.,
  (2,2),(0.,30.),.PIECEWISE_BEZIER_KNOTS.);
#102 = CARTESIAN_POINT('',(-16.46435602032,-20.14139553152,0.));
#103 = CARTESIAN_POINT('',(16.46435602032,-20.14139553152,0.));
#104 = B_SPLINE_SURFACE_WITH_KNOTS('',1,1,(
    (#105,#106)
    ,(#107,#108
    )),.UNSPECIFIED.,.F.,.F.,.F.,(2,2),(2,2),(0.,30.),(-4.7,0.),
  .PIECEWISE_BEZIER_KNOTS.);
#105 = CARTESIAN_POINT('',(-16.46435602032,-20.14139553152,
    5.158831553033));
#106 = CARTESIAN_POINT('',(-16.46435602032,-20.14139553152,0.));
#107 = CARTESIAN_POINT('',(16.46435602032,-20.14139553152,5.158831553033
    ));
#108 = CARTESIAN_POINT('',(16.46435602032,-20.14139553152,0.));
#109 = ADVANCED_FACE('',(#110),#132,.F.);
#110 = FACE_BOUND('',#111,.F.);
#111 = EDGE_LOOP('',(#112,#121,#126,#127));
#112 = ORIENTED_EDGE('',*,*,#113,.T.);
#113 = EDGE_CURVE('',#114,#116,#118,.T.);
#114 = VERTEX_POINT('',#115);
#115 = CARTESIAN_POINT('',(-3.292871204064,21.787831133556,0.));
#116 = VERTEX_POINT('',#117);
#117 = CARTESIAN_POINT('',(-3.292871204064,21.787831133556,
    5.158831553033));
#118 = B_SPLINE_CURVE_WITH_KNOTS('',1,(#119,#120),.UNSPECIFIED.,.F.,.F.,
  (2,2),(0.,4.7),.PIECEWISE_BEZIER_KNOTS.);
#119 = CARTESIAN_POINT('',(-3.292871204064,21.787831133556,0.));
#120 = CARTESIAN_POINT('',(-3.292871204064,21.787831133556,
    5.158831553033));
#121 = ORIENTED_EDGE('',*,*,#122,.T.);
#122 = EDGE_CURVE('',#116,#65,#123,.T.);
#123 = B_SPLINE_CURVE_WITH_KNOTS('',1,(#124,#125),.UNSPECIFIED.,.F.,.F.,
  (2,2),(0.,1.5),.PIECEWISE_BEZIER_KNOTS.);
#124 = CARTESIAN_POINT('',(-3.292871204064,21.787831133556,
    5.158831553033));
#125 = CARTESIAN_POINT('',(-3.292871204064,20.141395531524,
    5.158831553033));
#126 = ORIENTED_EDGE('',*,*,#64,.F.);
#127 = ORIENTED_EDGE('',*,*,#128,.F.);
#128 = EDGE_CURVE('',#114,#58,#129,.T.);
#129 = B_SPLINE_CURVE_WITH_KNOTS('',1,(#130,#131),.UNSPECIFIED.,.F.,.F.,
  (2,2),(0.,1.5),.PIECEWISE_BEZIER_KNOTS.);
#130 = CARTESIAN_POINT('',(-3.292871204064,21.787831133556,0.));
#131 = CARTESIAN_POINT('',(-3.292871204064,20.141395531524,0.));
#132 = B_SPLINE_SURFACE_WITH_KNOTS('',1,1,(
    (#133,#134)
    ,(#135,#136
    )),.UNSPECIFIED.,.F.,.F.,.F.,(2,2),(2,2),(0.,1.5),(-4.7,0.),
  .PIECEWISE_BEZIER_KNOTS.);
#133 = CARTESIAN_POINT('',(-3.292871204064,21.787831133556,
    5.158831553033));
#134 = CARTESIAN_POINT('',(-3.292871204064,21.787831133556,0.));
#135 = CARTESIAN_POINT('',(-3.292871204064,20.141395531524,
    5.158831553033));
#136 = CARTESIAN_POINT('',(-3.292871204064,20.141395531524,0.));
#137 = ADVANCED_FACE('',(#138),#160,.F.);
#138 = FACE_BOUND('',#139,.F.);
#139 = EDGE_LOOP('',(#140,#141,#148,#155));
#140 = ORIENTED_EDGE('',*,*,#93,.T.);
#141 = ORIENTED_EDGE('',*,*,#142,.T.);
#142 = EDGE_CURVE('',#87,#143,#145,.T.);
#143 = VERTEX_POINT('',#144);
#144 = CARTESIAN_POINT('',(16.46435602032,20.141395531524,5.158831553033
    ));
#145 = B_SPLINE_CURVE_WITH_KNOTS('',1,(#146,#147),.UNSPECIFIED.,.F.,.F.,
  (2,2),(0.,36.7),.PIECEWISE_BEZIER_KNOTS.);
#146 = CARTESIAN_POINT('',(16.46435602032,-20.14139553152,5.158831553033
    ));
#147 = CARTESIAN_POINT('',(16.46435602032,20.141395531524,5.158831553033
    ));
#148 = ORIENTED_EDGE('',*,*,#149,.F.);
#149 = EDGE_CURVE('',#150,#143,#152,.T.);
#150 = VERTEX_POINT('',#151);
#151 = CARTESIAN_POINT('',(16.46435602032,20.141395531524,0.));
#152 = B_SPLINE_CURVE_WITH_KNOTS('',1,(#153,#154),.UNSPECIFIED.,.F.,.F.,
  (2,2),(0.,4.7),.PIECEWISE_BEZIER_KNOTS.);
#153 = CARTESIAN_POINT('',(16.46435602032,20.141395531524,0.));
#154 = CARTESIAN_POINT('',(16.46435602032,20.141395531524,5.158831553033
    ));
#155 = ORIENTED_EDGE('',*,*,#156,.F.);
#156 = EDGE_CURVE('',#94,#150,#157,.T.);
#157 = B_SPLINE_CURVE_WITH_KNOTS('',1,(#158,#159),.UNSPECIFIED.,.F.,.F.,
  (2,2),(0.,36.7),.PIECEWISE_BEZIER_KNOTS.);
#158 = CARTESIAN_POINT('',(16.46435602032,-20.14139553152,0.));
#159 = CARTESIAN_POINT('',(16.46435602032,20.141395531524,0.));
#160 = B_SPLINE_SURFACE_WITH_KNOTS('',1,1,(
    (#161,#162)
    ,(#163,#164
    )),.UNSPECIFIED.,.F.,.F.,.F.,(2,2),(2,2),(0.,36.7),(-4.7,0.),
  .PIECEWISE_BEZIER_KNOTS.);
#161 = CARTESIAN_POINT('',(16.46435602032,-20.14139553152,5.158831553033
    ));
#162 = CARTESIAN_POINT('',(16.46435602032,-20.14139553152,0.));
#163 = CARTESIAN_POINT('',(16.46435602032,20.141395531524,5.158831553033
    ));
#164 = CARTESIAN_POINT('',(16.46435602032,20.141395531524,0.));
#165 = ADVANCED_FACE('',(#166),#188,.F.);
#166 = FACE_BOUND('',#167,.F.);
#167 = EDGE_LOOP('',(#168,#175,#176,#183));
#168 = ORIENTED_EDGE('',*,*,#169,.F.);
#169 = EDGE_CURVE('',#150,#170,#172,.T.);
#170 = VERTEX_POINT('',#171);
#171 = CARTESIAN_POINT('',(3.292871204064,20.141395531524,0.));
#172 = B_SPLINE_CURVE_WITH_KNOTS('',1,(#173,#174),.UNSPECIFIED.,.F.,.F.,
  (2,2),(0.,12.),.PIECEWISE_BEZIER_KNOTS.);
#173 = CARTESIAN_POINT('',(16.46435602032,20.141395531524,0.));
#174 = CARTESIAN_POINT('',(3.292871204064,20.141395531524,0.));
#175 = ORIENTED_EDGE('',*,*,#149,.T.);
#176 = ORIENTED_EDGE('',*,*,#177,.T.);
#177 = EDGE_CURVE('',#143,#178,#180,.T.);
#178 = VERTEX_POINT('',#179);
#179 = CARTESIAN_POINT('',(3.292871204064,20.141395531524,5.158831553033
    ));
#180 = B_SPLINE_CURVE_WITH_KNOTS('',1,(#181,#182),.UNSPECIFIED.,.F.,.F.,
  (2,2),(0.,12.),.PIECEWISE_BEZIER_KNOTS.);
#181 = CARTESIAN_POINT('',(16.46435602032,20.141395531524,5.158831553033
    ));
#182 = CARTESIAN_POINT('',(3.292871204064,20.141395531524,5.158831553033
    ));
#183 = ORIENTED_EDGE('',*,*,#184,.F.);
#184 = EDGE_CURVE('',#170,#178,#185,.T.);
#185 = B_SPLINE_CURVE_WITH_KNOTS('',1,(#186,#187),.UNSPECIFIED.,.F.,.F.,
  (2,2),(0.,4.7),.PIECEWISE_BEZIER_KNOTS.);
#186 = CARTESIAN_POINT('',(3.292871204064,20.141395531524,0.));
#187 = CARTESIAN_POINT('',(3.292871204064,20.141395531524,5.158831553033
    ));
#188 = B_SPLINE_SURFACE_WITH_KNOTS('',1,1,(
    (#189,#190)
    ,(#191,#192
    )),.UNSPECIFIED.,.F.,.F.,.F.,(2,2),(2,2),(0.,12.),(-4.7,0.),
  .PIECEWISE_BEZIER_KNOTS.);
#189 = CARTESIAN_POINT('',(16.46435602032,20.141395531524,5.158831553033
    ));
#190 = CARTESIAN_POINT('',(16.46435602032,20.141395531524,0.));
#191 = CARTESIAN_POINT('',(3.292871204064,20.141395531524,5.158831553033
    ));
#192 = CARTESIAN_POINT('',(3.292871204064,20.141395531524,0.));
#193 = ADVANCED_FACE('',(#194),#216,.F.);
#194 = FACE_BOUND('',#195,.F.);
#195 = EDGE_LOOP('',(#196,#205,#210,#211));
#196 = ORIENTED_EDGE('',*,*,#197,.T.);
#197 = EDGE_CURVE('',#198,#200,#202,.T.);
#198 = VERTEX_POINT('',#199);
#199 = CARTESIAN_POINT('',(3.292871204064,21.787831133556,0.));
#200 = VERTEX_POINT('',#201);
#201 = CARTESIAN_POINT('',(3.292871204064,21.787831133556,5.158831553033
    ));
#202 = B_SPLINE_CURVE_WITH_KNOTS('',1,(#203,#204),.UNSPECIFIED.,.F.,.F.,
  (2,2),(0.,4.7),.PIECEWISE_BEZIER_KNOTS.);
#203 = CARTESIAN_POINT('',(3.292871204064,21.787831133556,0.));
#204 = CARTESIAN_POINT('',(3.292871204064,21.787831133556,5.158831553033
    ));
#205 = ORIENTED_EDGE('',*,*,#206,.T.);
#206 = EDGE_CURVE('',#200,#116,#207,.T.);
#207 = B_SPLINE_CURVE_WITH_KNOTS('',1,(#208,#209),.UNSPECIFIED.,.F.,.F.,
  (2,2),(0.,6.),.PIECEWISE_BEZIER_KNOTS.);
#208 = CARTESIAN_POINT('',(3.292871204064,21.787831133556,5.158831553033
    ));
#209 = CARTESIAN_POINT('',(-3.292871204064,21.787831133556,
    5.158831553033));
#210 = ORIENTED_EDGE('',*,*,#113,.F.);
#211 = ORIENTED_EDGE('',*,*,#212,.F.);
#212 = EDGE_CURVE('',#198,#114,#213,.T.);
#213 = B_SPLINE_CURVE_WITH_KNOTS('',1,(#214,#215),.UNSPECIFIED.,.F.,.F.,
  (2,2),(0.,6.),.PIECEWISE_BEZIER_KNOTS.);
#214 = CARTESIAN_POINT('',(3.292871204064,21.787831133556,0.));
#215 = CARTESIAN_POINT('',(-3.292871204064,21.787831133556,0.));
#216 = B_SPLINE_SURFACE_WITH_KNOTS('',1,1,(
    (#217,#218)
    ,(#219,#220
    )),.UNSPECIFIED.,.F.,.F.,.F.,(2,2),(2,2),(0.,6.),(-4.7,0.),
  .PIECEWISE_BEZIER_KNOTS.);
#217 = CARTESIAN_POINT('',(3.292871204064,21.787831133556,5.158831553033
    ));
#218 = CARTESIAN_POINT('',(3.292871204064,21.787831133556,0.));
#219 = CARTESIAN_POINT('',(-3.292871204064,21.787831133556,
    5.158831553033));
#220 = CARTESIAN_POINT('',(-3.292871204064,21.787831133556,0.));
#221 = ADVANCED_FACE('',(#222),#236,.F.);
#222 = FACE_BOUND('',#223,.F.);
#223 = EDGE_LOOP('',(#224,#225,#230,#231));
#224 = ORIENTED_EDGE('',*,*,#184,.T.);
#225 = ORIENTED_EDGE('',*,*,#226,.T.);
#226 = EDGE_CURVE('',#178,#200,#227,.T.);
#227 = B_SPLINE_CURVE_WITH_KNOTS('',1,(#228,#229),.UNSPECIFIED.,.F.,.F.,
  (2,2),(0.,1.5),.PIECEWISE_BEZIER_KNOTS.);
#228 = CARTESIAN_POINT('',(3.292871204064,20.141395531524,5.158831553033
    ));
#229 = CARTESIAN_POINT('',(3.292871204064,21.787831133556,5.158831553033
    ));
#230 = ORIENTED_EDGE('',*,*,#197,.F.);
#231 = ORIENTED_EDGE('',*,*,#232,.F.);
#232 = EDGE_CURVE('',#170,#198,#233,.T.);
#233 = B_SPLINE_CURVE_WITH_KNOTS('',1,(#234,#235),.UNSPECIFIED.,.F.,.F.,
  (2,2),(0.,1.5),.PIECEWISE_BEZIER_KNOTS.);
#234 = CARTESIAN_POINT('',(3.292871204064,20.141395531524,0.));
#235 = CARTESIAN_POINT('',(3.292871204064,21.787831133556,0.));
#236 = B_SPLINE_SURFACE_WITH_KNOTS('',1,1,(
    (#237,#238)
    ,(#239,#240
    )),.UNSPECIFIED.,.F.,.F.,.F.,(2,2),(2,2),(0.,1.5),(-4.7,0.),
  .PIECEWISE_BEZIER_KNOTS.);
#237 = CARTESIAN_POINT('',(3.292871204064,20.141395531524,5.158831553033
    ));
#238 = CARTESIAN_POINT('',(3.292871204064,20.141395531524,0.));
#239 = CARTESIAN_POINT('',(3.292871204064,21.787831133556,5.158831553033
    ));
#240 = CARTESIAN_POINT('',(3.292871204064,21.787831133556,0.));
#241 = ADVANCED_FACE('',(#242),#252,.T.);
#242 = FACE_BOUND('',#243,.T.);
#243 = EDGE_LOOP('',(#244,#245,#246,#247,#248,#249,#250,#251));
#244 = ORIENTED_EDGE('',*,*,#44,.F.);
#245 = ORIENTED_EDGE('',*,*,#57,.F.);
#246 = ORIENTED_EDGE('',*,*,#128,.F.);
#247 = ORIENTED_EDGE('',*,*,#212,.F.);
#248 = ORIENTED_EDGE('',*,*,#232,.F.);
#249 = ORIENTED_EDGE('',*,*,#169,.F.);
#250 = ORIENTED_EDGE('',*,*,#156,.F.);
#251 = ORIENTED_EDGE('',*,*,#100,.F.);
#252 = B_SPLINE_SURFACE_WITH_KNOTS('',1,1,(
    (#253,#254)
    ,(#255,#256
    )),.UNSPECIFIED.,.F.,.F.,.F.,(2,2),(2,2),(-15.,15.),(-18.83607038123
    ,19.363929618768),.PIECEWISE_BEZIER_KNOTS.);
#253 = CARTESIAN_POINT('',(16.46435602032,-20.14139553152,0.));
#254 = CARTESIAN_POINT('',(16.46435602032,21.787831133556,0.));
#255 = CARTESIAN_POINT('',(-16.46435602032,-20.14139553152,0.));
#256 = CARTESIAN_POINT('',(-16.46435602032,21.787831133556,0.));
#257 = ADVANCED_FACE('',(#258),#268,.T.);
#258 = FACE_BOUND('',#259,.T.);
#259 = EDGE_LOOP('',(#260,#261,#262,#263,#264,#265,#266,#267));
#260 = ORIENTED_EDGE('',*,*,#30,.T.);
#261 = ORIENTED_EDGE('',*,*,#86,.T.);
#262 = ORIENTED_EDGE('',*,*,#142,.T.);
#263 = ORIENTED_EDGE('',*,*,#177,.T.);
#264 = ORIENTED_EDGE('',*,*,#226,.T.);
#265 = ORIENTED_EDGE('',*,*,#206,.T.);
#266 = ORIENTED_EDGE('',*,*,#122,.T.);
#267 = ORIENTED_EDGE('',*,*,#71,.T.);
#268 = B_SPLINE_SURFACE_WITH_KNOTS('',1,1,(
    (#269,#270)
    ,(#271,#272
    )),.UNSPECIFIED.,.F.,.F.,.F.,(2,2),(2,2),(-15.,15.),(-18.83607038123
    ,19.363929618768),.PIECEWISE_BEZIER_KNOTS.);
#269 = CARTESIAN_POINT('',(-16.46435602032,-20.14139553152,
    5.158831553033));
#270 = CARTESIAN_POINT('',(-16.46435602032,21.787831133556,
    5.158831553033));
#271 = CARTESIAN_POINT('',(16.46435602032,-20.14139553152,5.158831553033
    ));
#272 = CARTESIAN_POINT('',(16.46435602032,21.787831133556,5.158831553033
    ));
#273 = ( GEOMETRIC_REPRESENTATION_CONTEXT(3) 
GLOBAL_UNCERTAINTY_ASSIGNED_CONTEXT((#277)) GLOBAL_UNIT_ASSIGNED_CONTEXT
((#274,#275,#276)) REPRESENTATION_CONTEXT('Context #1',
  '3D Context with UNIT and UNCERTAINTY') );
#274 = ( LENGTH_UNIT() NAMED_UNIT(*) SI_UNIT(.MILLI.,.METRE.) );
#275 = ( NAMED_UNIT(*) PLANE_ANGLE_UNIT() SI_UNIT($,.RADIAN.) );
#276 = ( NAMED_UNIT(*) SI_UNIT($,.STERADIAN.) SOLID_ANGLE_UNIT() );
#277 = UNCERTAINTY_MEASURE_WITH_UNIT(LENGTH_MEASURE(1.E-07),#274,
  'distance_accuracy_value','confusion accuracy');
#278 = PRODUCT_RELATED_PRODUCT_CATEGORY('part',$,(#7));
ENDSEC;
END-ISO-10303-21;
