ISO-10303-21;
HEADER;
FILE_DESCRIPTION(('FreeCAD Model'),'2;1');
FILE_NAME('Open CASCADE Shape Model','2025-05-04T13:47:46',('FreeCAD'),(
    'FreeCAD'),'Open CASCADE STEP processor 7.6','FreeCAD','Unknown');
FILE_SCHEMA(('AUTOMOTIVE_DESIGN { 1 0 10303 214 1 1 1 1 }'));
ENDSEC;
DATA;
#1 = APPLICATION_PROTOCOL_DEFINITION('international standard',
  'automotive_design',2000,#2);
#2 = APPLICATION_CONTEXT(
  'core data for automotive mechanical design processes');
#3 = SHAPE_DEFINITION_REPRESENTATION(#4,#10);
#4 = PRODUCT_DEFINITION_SHAPE('','',#5);
#5 = PRODUCT_DEFINITION('design','',#6,#9);
#6 = PRODUCT_DEFINITION_FORMATION('','',#7);
#7 = PRODUCT('Open CASCADE STEP translator 7.6 1',
  'Open CASCADE STEP translator 7.6 1','',(#8));
#8 = PRODUCT_CONTEXT('',#2,'mechanical');
#9 = PRODUCT_DEFINITION_CONTEXT('part definition',#2,'design');
#10 = ADVANCED_BREP_SHAPE_REPRESENTATION('',(#11,#15),#300);
#11 = AXIS2_PLACEMENT_3D('',#12,#13,#14);
#12 = CARTESIAN_POINT('',(0.,0.,0.));
#13 = DIRECTION('',(0.,0.,1.));
#14 = DIRECTION('',(1.,0.,-0.));
#15 = MANIFOLD_SOLID_BREP('',#16);
#16 = CLOSED_SHELL('',(#17,#89,#133,#142,#226,#277,#290));
#17 = ADVANCED_FACE('',(#18),#61,.T.);
#18 = FACE_BOUND('',#19,.T.);
#19 = EDGE_LOOP('',(#20,#34,#42,#54,#60));
#20 = ORIENTED_EDGE('',*,*,#21,.F.);
#21 = EDGE_CURVE('',#22,#22,#24,.T.);
#22 = VERTEX_POINT('',#23);
#23 = CARTESIAN_POINT('',(-1.235123022008E-15,2.044816910642,
    -10.08554485152));
#24 = ( BOUNDED_CURVE() B_SPLINE_CURVE(2,(#25,#26,#27,#28,#29,#30,#31,
#32,#33),.UNSPECIFIED.,.T.,.F.) B_SPLINE_CURVE_WITH_KNOTS((3,2,2,2,3),(
    -3.14159265359,-1.570796326795,0.,1.570796326795,3.14159265359),
.UNSPECIFIED.) CURVE() GEOMETRIC_REPRESENTATION_ITEM() 
RATIONAL_B_SPLINE_CURVE((1.,0.707106781187,1.,0.707106781187,1.,
0.707106781187,1.,0.707106781187,1.)) REPRESENTATION_ITEM('') );
#25 = CARTESIAN_POINT('',(-1.235123022008E-15,2.044816910642,
    -10.08554485152));
#26 = CARTESIAN_POINT('',(-10.08554485152,2.044816910642,-10.08554485152
    ));
#27 = CARTESIAN_POINT('',(-10.08554485152,2.044816910642,
    6.175615110038E-16));
#28 = CARTESIAN_POINT('',(-10.08554485152,2.044816910642,10.085544851525
    ));
#29 = CARTESIAN_POINT('',(0.,2.044816910642,10.085544851525));
#30 = CARTESIAN_POINT('',(10.085544851525,2.044816910642,10.085544851525
    ));
#31 = CARTESIAN_POINT('',(10.085544851525,2.044816910642,
    6.175615110038E-16));
#32 = CARTESIAN_POINT('',(10.085544851525,2.044816910642,-10.08554485152
    ));
#33 = CARTESIAN_POINT('',(1.235123022008E-15,2.044816910642,
    -10.08554485152));
#34 = ORIENTED_EDGE('',*,*,#35,.T.);
#35 = EDGE_CURVE('',#22,#36,#38,.T.);
#36 = VERTEX_POINT('',#37);
#37 = CARTESIAN_POINT('',(0.,3.490284616561,-14.0478921761));
#38 = ( BOUNDED_CURVE() B_SPLINE_CURVE(2,(#39,#40,#41),.UNSPECIFIED.,.F.
,.F.) B_SPLINE_CURVE_WITH_KNOTS((3,3),(-1.450544898802,-0.991449526336),
.PIECEWISE_BEZIER_KNOTS.) CURVE() GEOMETRIC_REPRESENTATION_ITEM() 
RATIONAL_B_SPLINE_CURVE((1.,0.973769412774,1.)) REPRESENTATION_ITEM('') 
  );
#39 = CARTESIAN_POINT('',(0.,2.044816910642,-10.08554485152));
#40 = CARTESIAN_POINT('',(0.,2.304617240657,-12.23559706044));
#41 = CARTESIAN_POINT('',(0.,3.490284616561,-14.0478921761));
#42 = ORIENTED_EDGE('',*,*,#43,.T.);
#43 = EDGE_CURVE('',#36,#44,#46,.T.);
#44 = VERTEX_POINT('',#45);
#45 = CARTESIAN_POINT('',(14.047892176108,3.490284616561,
    1.720370618824E-15));
#46 = ( BOUNDED_CURVE() B_SPLINE_CURVE(2,(#47,#48,#49,#50,#51,#52,#53),
.UNSPECIFIED.,.F.,.F.) B_SPLINE_CURVE_WITH_KNOTS((3,2,2,3),(
    -1.570796326795,0.,1.570796326795,3.14159265359),.UNSPECIFIED.) 
CURVE() GEOMETRIC_REPRESENTATION_ITEM() RATIONAL_B_SPLINE_CURVE((1.,
    0.707106781187,1.,0.707106781187,1.,0.707106781187,1.)) 
REPRESENTATION_ITEM('') );
#47 = CARTESIAN_POINT('',(-8.601853094119E-16,3.490284616561,
    -14.0478921761));
#48 = CARTESIAN_POINT('',(-14.0478921761,3.490284616561,-14.0478921761)
  );
#49 = CARTESIAN_POINT('',(-14.0478921761,3.490284616561,0.));
#50 = CARTESIAN_POINT('',(-14.0478921761,3.490284616561,14.047892176108)
  );
#51 = CARTESIAN_POINT('',(-8.601853094119E-16,3.490284616561,
    14.047892176108));
#52 = CARTESIAN_POINT('',(14.047892176108,3.490284616561,14.047892176108
    ));
#53 = CARTESIAN_POINT('',(14.047892176108,3.490284616561,
    1.720370618824E-15));
#54 = ORIENTED_EDGE('',*,*,#55,.T.);
#55 = EDGE_CURVE('',#44,#36,#56,.T.);
#56 = ( BOUNDED_CURVE() B_SPLINE_CURVE(2,(#57,#58,#59),.UNSPECIFIED.,.F.
,.F.) B_SPLINE_CURVE_WITH_KNOTS((3,3),(-3.14159265359,-1.570796326795),
.PIECEWISE_BEZIER_KNOTS.) CURVE() GEOMETRIC_REPRESENTATION_ITEM() 
RATIONAL_B_SPLINE_CURVE((1.,0.707106781187,1.)) REPRESENTATION_ITEM('') 
  );
#57 = CARTESIAN_POINT('',(14.047892176108,3.490284616561,
    -1.720370618824E-15));
#58 = CARTESIAN_POINT('',(14.047892176108,3.490284616561,-14.0478921761)
  );
#59 = CARTESIAN_POINT('',(-8.601853094119E-16,3.490284616561,
    -14.0478921761));
#60 = ORIENTED_EDGE('',*,*,#35,.F.);
#61 = ( BOUNDED_SURFACE() B_SPLINE_SURFACE(2,2,(
    (#62,#63,#64,#65,#66,#67,#68,#69,#70)
    ,(#71,#72,#73,#74,#75,#76,#77,#78,#79)
    ,(#80,#81,#82,#83,#84,#85,#86,#87,#88
)),.UNSPECIFIED.,.F.,.T.,.F.) B_SPLINE_SURFACE_WITH_KNOTS((3,3),(1,2,2,2
    ,2,2,1),(-1.450544898802,-0.991449526336),(-4.712388980385,
    -3.14159265359,-1.570796326795,0.,1.570796326795,3.14159265359,
4.712388980385),.UNSPECIFIED.) GEOMETRIC_REPRESENTATION_ITEM() 
RATIONAL_B_SPLINE_SURFACE((
    (1.,0.707106781187,1.,0.707106781187,1.,0.707106781187,1.
      ,0.707106781187,1.)
    ,(0.973769412774,0.688558955085,0.973769412774,0.688558955085
      ,0.973769412774,0.688558955085,0.973769412774,0.688558955085
      ,0.973769412774)
    ,(1.,0.707106781187,1.,0.707106781187,1.,0.707106781187,1.
,0.707106781187,1.))) REPRESENTATION_ITEM('') SURFACE() );
#62 = CARTESIAN_POINT('',(0.,2.044816910642,-10.08554485152));
#63 = CARTESIAN_POINT('',(-10.08554485152,2.044816910642,-10.08554485152
    ));
#64 = CARTESIAN_POINT('',(-10.08554485152,2.044816910642,0.));
#65 = CARTESIAN_POINT('',(-10.08554485152,2.044816910642,10.085544851525
    ));
#66 = CARTESIAN_POINT('',(0.,2.044816910642,10.085544851525));
#67 = CARTESIAN_POINT('',(10.085544851525,2.044816910642,10.085544851525
    ));
#68 = CARTESIAN_POINT('',(10.085544851525,2.044816910642,0.));
#69 = CARTESIAN_POINT('',(10.085544851525,2.044816910642,-10.08554485152
    ));
#70 = CARTESIAN_POINT('',(0.,2.044816910642,-10.08554485152));
#71 = CARTESIAN_POINT('',(0.,2.304617240657,-12.23559706044));
#72 = CARTESIAN_POINT('',(-12.23559706044,2.304617240657,-12.23559706044
    ));
#73 = CARTESIAN_POINT('',(-12.23559706044,2.304617240657,0.));
#74 = CARTESIAN_POINT('',(-12.23559706044,2.304617240657,12.235597060443
    ));
#75 = CARTESIAN_POINT('',(0.,2.304617240657,12.235597060443));
#76 = CARTESIAN_POINT('',(12.235597060443,2.304617240657,12.235597060443
    ));
#77 = CARTESIAN_POINT('',(12.235597060443,2.304617240657,0.));
#78 = CARTESIAN_POINT('',(12.235597060443,2.304617240657,-12.23559706044
    ));
#79 = CARTESIAN_POINT('',(0.,2.304617240657,-12.23559706044));
#80 = CARTESIAN_POINT('',(0.,3.490284616561,-14.0478921761));
#81 = CARTESIAN_POINT('',(-14.0478921761,3.490284616561,-14.0478921761)
  );
#82 = CARTESIAN_POINT('',(-14.0478921761,3.490284616561,0.));
#83 = CARTESIAN_POINT('',(-14.0478921761,3.490284616561,14.047892176108)
  );
#84 = CARTESIAN_POINT('',(0.,3.490284616561,14.047892176108));
#85 = CARTESIAN_POINT('',(14.047892176108,3.490284616561,14.047892176108
    ));
#86 = CARTESIAN_POINT('',(14.047892176108,3.490284616561,0.));
#87 = CARTESIAN_POINT('',(14.047892176108,3.490284616561,-14.0478921761)
  );
#88 = CARTESIAN_POINT('',(0.,3.490284616561,-14.0478921761));
#89 = ADVANCED_FACE('',(#90),#114,.T.);
#90 = FACE_BOUND('',#91,.T.);
#91 = EDGE_LOOP('',(#92,#93,#100,#112,#113));
#92 = ORIENTED_EDGE('',*,*,#55,.F.);
#93 = ORIENTED_EDGE('',*,*,#94,.T.);
#94 = EDGE_CURVE('',#44,#95,#97,.T.);
#95 = VERTEX_POINT('',#96);
#96 = CARTESIAN_POINT('',(14.047892176108,3.680670439155,
    1.720370618824E-15));
#97 = B_SPLINE_CURVE_WITH_KNOTS('',1,(#98,#99),.UNSPECIFIED.,.F.,.F.,(2,
    2),(2.628887705096E-02,3.811944091487E-02),
  .PIECEWISE_BEZIER_KNOTS.);
#98 = CARTESIAN_POINT('',(14.047892176108,3.490284616561,0.));
#99 = CARTESIAN_POINT('',(14.047892176108,3.680670439155,0.));
#100 = ORIENTED_EDGE('',*,*,#101,.F.);
#101 = EDGE_CURVE('',#95,#95,#102,.T.);
#102 = ( BOUNDED_CURVE() B_SPLINE_CURVE(2,(#103,#104,#105,#106,#107,#108
,#109,#110,#111),.UNSPECIFIED.,.T.,.F.) B_SPLINE_CURVE_WITH_KNOTS((3,2,2
    ,2,3),(-3.14159265359,-1.570796326795,0.,1.570796326795,
3.14159265359),.UNSPECIFIED.) CURVE() GEOMETRIC_REPRESENTATION_ITEM() 
RATIONAL_B_SPLINE_CURVE((1.,0.707106781187,1.,0.707106781187,1.,
0.707106781187,1.,0.707106781187,1.)) REPRESENTATION_ITEM('') );
#103 = CARTESIAN_POINT('',(14.047892176108,3.680670439155,
    1.720370618824E-15));
#104 = CARTESIAN_POINT('',(14.047892176108,3.680670439155,
    14.047892176108));
#105 = CARTESIAN_POINT('',(-8.601853094119E-16,3.680670439155,
    14.047892176108));
#106 = CARTESIAN_POINT('',(-14.0478921761,3.680670439155,14.047892176108
    ));
#107 = CARTESIAN_POINT('',(-14.0478921761,3.680670439155,0.));
#108 = CARTESIAN_POINT('',(-14.0478921761,3.680670439155,-14.0478921761)
  );
#109 = CARTESIAN_POINT('',(-8.601853094119E-16,3.680670439155,
    -14.0478921761));
#110 = CARTESIAN_POINT('',(14.047892176108,3.680670439155,-14.0478921761
    ));
#111 = CARTESIAN_POINT('',(14.047892176108,3.680670439155,
    -1.720370618824E-15));
#112 = ORIENTED_EDGE('',*,*,#94,.F.);
#113 = ORIENTED_EDGE('',*,*,#43,.F.);
#114 = ( BOUNDED_SURFACE() B_SPLINE_SURFACE(1,2,(
    (#115,#116,#117,#118,#119,#120,#121,#122,#123)
    ,(#124,#125,#126,#127,#128,#129,#130,#131,#132
)),.UNSPECIFIED.,.F.,.T.,.F.) B_SPLINE_SURFACE_WITH_KNOTS((2,2),(1,2,2,2
    ,2,2,1),(2.628887705096E-02,3.811944091487E-02),(-4.712388980385,
    -3.14159265359,-1.570796326795,0.,1.570796326795,3.14159265359,
4.712388980385),.UNSPECIFIED.) GEOMETRIC_REPRESENTATION_ITEM() 
RATIONAL_B_SPLINE_SURFACE((
    (1.,0.707106781187,1.,0.707106781187,1.,0.707106781187,1.
      ,0.707106781187,1.)
    ,(1.,0.707106781187,1.,0.707106781187,1.,0.707106781187,1.
,0.707106781187,1.))) REPRESENTATION_ITEM('') SURFACE() );
#115 = CARTESIAN_POINT('',(14.047892176108,3.490284616561,0.));
#116 = CARTESIAN_POINT('',(14.047892176108,3.490284616561,-14.0478921761
    ));
#117 = CARTESIAN_POINT('',(0.,3.490284616561,-14.0478921761));
#118 = CARTESIAN_POINT('',(-14.0478921761,3.490284616561,-14.0478921761)
  );
#119 = CARTESIAN_POINT('',(-14.0478921761,3.490284616561,0.));
#120 = CARTESIAN_POINT('',(-14.0478921761,3.490284616561,14.047892176108
    ));
#121 = CARTESIAN_POINT('',(0.,3.490284616561,14.047892176108));
#122 = CARTESIAN_POINT('',(14.047892176108,3.490284616561,
    14.047892176108));
#123 = CARTESIAN_POINT('',(14.047892176108,3.490284616561,0.));
#124 = CARTESIAN_POINT('',(14.047892176108,3.680670439155,0.));
#125 = CARTESIAN_POINT('',(14.047892176108,3.680670439155,-14.0478921761
    ));
#126 = CARTESIAN_POINT('',(0.,3.680670439155,-14.0478921761));
#127 = CARTESIAN_POINT('',(-14.0478921761,3.680670439155,-14.0478921761)
  );
#128 = CARTESIAN_POINT('',(-14.0478921761,3.680670439155,0.));
#129 = CARTESIAN_POINT('',(-14.0478921761,3.680670439155,14.047892176108
    ));
#130 = CARTESIAN_POINT('',(0.,3.680670439155,14.047892176108));
#131 = CARTESIAN_POINT('',(14.047892176108,3.680670439155,
    14.047892176108));
#132 = CARTESIAN_POINT('',(14.047892176108,3.680670439155,0.));
#133 = ADVANCED_FACE('',(#134),#137,.T.);
#134 = FACE_BOUND('',#135,.T.);
#135 = EDGE_LOOP('',(#136));
#136 = ORIENTED_EDGE('',*,*,#21,.T.);
#137 = B_SPLINE_SURFACE_WITH_KNOTS('',1,1,(
    (#138,#139)
    ,(#140,#141
    )),.UNSPECIFIED.,.F.,.F.,.F.,(2,2),(2,2),(-1.253791083131,
    1.253791083131),(1.352641305476E-02,2.521108579317),
  .PIECEWISE_BEZIER_KNOTS.);
#138 = CARTESIAN_POINT('',(-10.0935953118,2.044816910642,-10.0935953118)
  );
#139 = CARTESIAN_POINT('',(10.093595311803,2.044816910642,-10.0935953118
    ));
#140 = CARTESIAN_POINT('',(-10.0935953118,2.044816910642,10.093595311803
    ));
#141 = CARTESIAN_POINT('',(10.093595311803,2.044816910642,
    10.093595311803));
#142 = ADVANCED_FACE('',(#143),#198,.T.);
#143 = FACE_BOUND('',#144,.T.);
#144 = EDGE_LOOP('',(#145,#157,#165,#173,#181,#191,#192));
#145 = ORIENTED_EDGE('',*,*,#146,.F.);
#146 = EDGE_CURVE('',#147,#149,#151,.T.);
#147 = VERTEX_POINT('',#148);
#148 = CARTESIAN_POINT('',(-16.09270908675,2.45378029277,0.));
#149 = VERTEX_POINT('',#150);
#150 = CARTESIAN_POINT('',(16.09270908675,2.45378029277,0.));
#151 = ( BOUNDED_CURVE() B_SPLINE_CURVE(2,(#152,#153,#154,#155,#156),
.UNSPECIFIED.,.F.,.F.) B_SPLINE_CURVE_WITH_KNOTS((3,2,3),(-3.14159265359
,-1.570796326795,0.),.UNSPECIFIED.) CURVE() 
GEOMETRIC_REPRESENTATION_ITEM() RATIONAL_B_SPLINE_CURVE((1.,
0.707106781187,1.,0.707106781187,1.)) REPRESENTATION_ITEM('') );
#152 = CARTESIAN_POINT('',(-16.09270908675,2.45378029277,
    1.97078846727E-15));
#153 = CARTESIAN_POINT('',(-16.09270908675,2.45378029277,16.09270908675)
  );
#154 = CARTESIAN_POINT('',(9.853942336349E-16,2.45378029277,
    16.09270908675));
#155 = CARTESIAN_POINT('',(16.09270908675,2.45378029277,16.09270908675)
  );
#156 = CARTESIAN_POINT('',(16.09270908675,2.45378029277,0.));
#157 = ORIENTED_EDGE('',*,*,#158,.F.);
#158 = EDGE_CURVE('',#159,#147,#161,.T.);
#159 = VERTEX_POINT('',#160);
#160 = CARTESIAN_POINT('',(0.,2.45378029277,-16.09270908675));
#161 = ( BOUNDED_CURVE() B_SPLINE_CURVE(2,(#162,#163,#164),
.UNSPECIFIED.,.F.,.F.) B_SPLINE_CURVE_WITH_KNOTS((3,3),(1.570796326795,
3.14159265359),.PIECEWISE_BEZIER_KNOTS.) CURVE() 
GEOMETRIC_REPRESENTATION_ITEM() RATIONAL_B_SPLINE_CURVE((1.,
0.707106781187,1.)) REPRESENTATION_ITEM('') );
#162 = CARTESIAN_POINT('',(9.853942336349E-16,2.45378029277,
    -16.09270908675));
#163 = CARTESIAN_POINT('',(-16.09270908675,2.45378029277,-16.09270908675
    ));
#164 = CARTESIAN_POINT('',(-16.09270908675,2.45378029277,
    -1.97078846727E-15));
#165 = ORIENTED_EDGE('',*,*,#166,.T.);
#166 = EDGE_CURVE('',#159,#167,#169,.T.);
#167 = VERTEX_POINT('',#168);
#168 = CARTESIAN_POINT('',(0.,1.787561271919E-15,-10.2024891628));
#169 = ( BOUNDED_CURVE() B_SPLINE_CURVE(2,(#170,#171,#172),
.UNSPECIFIED.,.F.,.F.) B_SPLINE_CURVE_WITH_KNOTS((3,3),(0.890183191075,
1.461965523295),.PIECEWISE_BEZIER_KNOTS.) CURVE() 
GEOMETRIC_REPRESENTATION_ITEM() RATIONAL_B_SPLINE_CURVE((1.,
0.959410713628,1.)) REPRESENTATION_ITEM('') );
#170 = CARTESIAN_POINT('',(0.,2.45378029277,-16.09270908675));
#171 = CARTESIAN_POINT('',(0.,0.361194172141,-13.5082355269));
#172 = CARTESIAN_POINT('',(0.,1.787561271919E-15,-10.2024891628));
#173 = ORIENTED_EDGE('',*,*,#174,.T.);
#174 = EDGE_CURVE('',#167,#175,#177,.T.);
#175 = VERTEX_POINT('',#176);
#176 = CARTESIAN_POINT('',(-10.2024891628,0.,0.));
#177 = ( BOUNDED_CURVE() B_SPLINE_CURVE(2,(#178,#179,#180),
.UNSPECIFIED.,.F.,.F.) B_SPLINE_CURVE_WITH_KNOTS((3,3),(1.570796326795,
3.14159265359),.PIECEWISE_BEZIER_KNOTS.) CURVE() 
GEOMETRIC_REPRESENTATION_ITEM() RATIONAL_B_SPLINE_CURVE((1.,
0.707106781187,1.)) REPRESENTATION_ITEM('') );
#178 = CARTESIAN_POINT('',(6.247222848283E-16,0.,-10.2024891628));
#179 = CARTESIAN_POINT('',(-10.2024891628,0.,-10.2024891628));
#180 = CARTESIAN_POINT('',(-10.2024891628,0.,-1.249444569657E-15));
#181 = ORIENTED_EDGE('',*,*,#182,.T.);
#182 = EDGE_CURVE('',#175,#167,#183,.T.);
#183 = ( BOUNDED_CURVE() B_SPLINE_CURVE(2,(#184,#185,#186,#187,#188,#189
,#190),.UNSPECIFIED.,.F.,.F.) B_SPLINE_CURVE_WITH_KNOTS((3,2,2,3),(
    -3.14159265359,-1.570796326795,0.,1.570796326795),.UNSPECIFIED.) 
CURVE() GEOMETRIC_REPRESENTATION_ITEM() RATIONAL_B_SPLINE_CURVE((1.,
    0.707106781187,1.,0.707106781187,1.,0.707106781187,1.)) 
REPRESENTATION_ITEM('') );
#184 = CARTESIAN_POINT('',(-10.2024891628,0.,1.249444569657E-15));
#185 = CARTESIAN_POINT('',(-10.2024891628,0.,10.202489162806));
#186 = CARTESIAN_POINT('',(6.247222848283E-16,0.,10.202489162806));
#187 = CARTESIAN_POINT('',(10.202489162806,0.,10.202489162806));
#188 = CARTESIAN_POINT('',(10.202489162806,0.,0.));
#189 = CARTESIAN_POINT('',(10.202489162806,0.,-10.2024891628));
#190 = CARTESIAN_POINT('',(6.247222848283E-16,0.,-10.2024891628));
#191 = ORIENTED_EDGE('',*,*,#166,.F.);
#192 = ORIENTED_EDGE('',*,*,#193,.F.);
#193 = EDGE_CURVE('',#149,#159,#194,.T.);
#194 = ( BOUNDED_CURVE() B_SPLINE_CURVE(2,(#195,#196,#197),
.UNSPECIFIED.,.F.,.F.) B_SPLINE_CURVE_WITH_KNOTS((3,3),(0.,
1.570796326795),.PIECEWISE_BEZIER_KNOTS.) CURVE() 
GEOMETRIC_REPRESENTATION_ITEM() RATIONAL_B_SPLINE_CURVE((1.,
0.707106781187,1.)) REPRESENTATION_ITEM('') );
#195 = CARTESIAN_POINT('',(16.09270908675,2.45378029277,0.));
#196 = CARTESIAN_POINT('',(16.09270908675,2.45378029277,-16.09270908675)
  );
#197 = CARTESIAN_POINT('',(9.853942336349E-16,2.45378029277,
    -16.09270908675));
#198 = ( BOUNDED_SURFACE() B_SPLINE_SURFACE(2,2,(
    (#199,#200,#201,#202,#203,#204,#205,#206,#207)
    ,(#208,#209,#210,#211,#212,#213,#214,#215,#216)
    ,(#217,#218,#219,#220,#221,#222,#223,#224,#225
)),.UNSPECIFIED.,.F.,.T.,.F.) B_SPLINE_SURFACE_WITH_KNOTS((3,3),(1,2,2,2
    ,2,2,1),(-1.461965523295,-0.890183191075),(-4.712388980385,
    -3.14159265359,-1.570796326795,0.,1.570796326795,3.14159265359,
4.712388980385),.UNSPECIFIED.) GEOMETRIC_REPRESENTATION_ITEM() 
RATIONAL_B_SPLINE_SURFACE((
    (1.,0.707106781187,1.,0.707106781187,1.,0.707106781187,1.
      ,0.707106781187,1.)
    ,(0.959410713628,0.678405821549,0.959410713628,0.678405821549
      ,0.959410713628,0.678405821549,0.959410713628,0.678405821549
      ,0.959410713628)
    ,(1.,0.707106781187,1.,0.707106781187,1.,0.707106781187,1.
,0.707106781187,1.))) REPRESENTATION_ITEM('') SURFACE() );
#199 = CARTESIAN_POINT('',(0.,2.45378029277,-16.09270908675));
#200 = CARTESIAN_POINT('',(-16.09270908675,2.45378029277,-16.09270908675
    ));
#201 = CARTESIAN_POINT('',(-16.09270908675,2.45378029277,0.));
#202 = CARTESIAN_POINT('',(-16.09270908675,2.45378029277,16.09270908675)
  );
#203 = CARTESIAN_POINT('',(0.,2.45378029277,16.09270908675));
#204 = CARTESIAN_POINT('',(16.09270908675,2.45378029277,16.09270908675)
  );
#205 = CARTESIAN_POINT('',(16.09270908675,2.45378029277,0.));
#206 = CARTESIAN_POINT('',(16.09270908675,2.45378029277,-16.09270908675)
  );
#207 = CARTESIAN_POINT('',(0.,2.45378029277,-16.09270908675));
#208 = CARTESIAN_POINT('',(0.,0.361194172141,-13.5082355269));
#209 = CARTESIAN_POINT('',(-13.5082355269,0.361194172141,-13.5082355269)
  );
#210 = CARTESIAN_POINT('',(-13.5082355269,0.361194172141,0.));
#211 = CARTESIAN_POINT('',(-13.5082355269,0.361194172141,13.508235526908
    ));
#212 = CARTESIAN_POINT('',(0.,0.361194172141,13.508235526908));
#213 = CARTESIAN_POINT('',(13.508235526908,0.361194172141,
    13.508235526908));
#214 = CARTESIAN_POINT('',(13.508235526908,0.361194172141,0.));
#215 = CARTESIAN_POINT('',(13.508235526908,0.361194172141,-13.5082355269
    ));
#216 = CARTESIAN_POINT('',(0.,0.361194172141,-13.5082355269));
#217 = CARTESIAN_POINT('',(0.,1.787561271919E-15,-10.2024891628));
#218 = CARTESIAN_POINT('',(-10.2024891628,1.787561271919E-15,
    -10.2024891628));
#219 = CARTESIAN_POINT('',(-10.2024891628,1.787561271919E-15,0.));
#220 = CARTESIAN_POINT('',(-10.2024891628,1.787561271919E-15,
    10.202489162806));
#221 = CARTESIAN_POINT('',(0.,1.787561271919E-15,10.202489162806));
#222 = CARTESIAN_POINT('',(10.202489162806,1.787561271919E-15,
    10.202489162806));
#223 = CARTESIAN_POINT('',(10.202489162806,1.787561271919E-15,0.));
#224 = CARTESIAN_POINT('',(10.202489162806,1.787561271919E-15,
    -10.2024891628));
#225 = CARTESIAN_POINT('',(0.,1.787561271919E-15,-10.2024891628));
#226 = ADVANCED_FACE('',(#227),#258,.T.);
#227 = FACE_BOUND('',#228,.T.);
#228 = EDGE_LOOP('',(#229,#241,#249,#254,#255,#256,#257));
#229 = ORIENTED_EDGE('',*,*,#230,.F.);
#230 = EDGE_CURVE('',#231,#233,#235,.T.);
#231 = VERTEX_POINT('',#232);
#232 = CARTESIAN_POINT('',(-16.09270908675,3.680670439155,0.));
#233 = VERTEX_POINT('',#234);
#234 = CARTESIAN_POINT('',(16.09270908675,3.680670439155,0.));
#235 = ( BOUNDED_CURVE() B_SPLINE_CURVE(2,(#236,#237,#238,#239,#240),
.UNSPECIFIED.,.F.,.F.) B_SPLINE_CURVE_WITH_KNOTS((3,2,3),(-3.14159265359
,-1.570796326795,0.),.UNSPECIFIED.) CURVE() 
GEOMETRIC_REPRESENTATION_ITEM() RATIONAL_B_SPLINE_CURVE((1.,
0.707106781187,1.,0.707106781187,1.)) REPRESENTATION_ITEM('') );
#236 = CARTESIAN_POINT('',(-16.09270908675,3.680670439155,
    1.97078846727E-15));
#237 = CARTESIAN_POINT('',(-16.09270908675,3.680670439155,16.09270908675
    ));
#238 = CARTESIAN_POINT('',(9.853942336349E-16,3.680670439155,
    16.09270908675));
#239 = CARTESIAN_POINT('',(16.09270908675,3.680670439155,16.09270908675)
  );
#240 = CARTESIAN_POINT('',(16.09270908675,3.680670439155,0.));
#241 = ORIENTED_EDGE('',*,*,#242,.F.);
#242 = EDGE_CURVE('',#233,#231,#243,.T.);
#243 = ( BOUNDED_CURVE() B_SPLINE_CURVE(2,(#244,#245,#246,#247,#248),
.UNSPECIFIED.,.F.,.F.) B_SPLINE_CURVE_WITH_KNOTS((3,2,3),(0.,
1.570796326795,3.14159265359),.UNSPECIFIED.) CURVE() 
GEOMETRIC_REPRESENTATION_ITEM() RATIONAL_B_SPLINE_CURVE((1.,
0.707106781187,1.,0.707106781187,1.)) REPRESENTATION_ITEM('') );
#244 = CARTESIAN_POINT('',(16.09270908675,3.680670439155,0.));
#245 = CARTESIAN_POINT('',(16.09270908675,3.680670439155,-16.09270908675
    ));
#246 = CARTESIAN_POINT('',(9.853942336349E-16,3.680670439155,
    -16.09270908675));
#247 = CARTESIAN_POINT('',(-16.09270908675,3.680670439155,
    -16.09270908675));
#248 = CARTESIAN_POINT('',(-16.09270908675,3.680670439155,
    -1.97078846727E-15));
#249 = ORIENTED_EDGE('',*,*,#250,.T.);
#250 = EDGE_CURVE('',#233,#149,#251,.T.);
#251 = B_SPLINE_CURVE_WITH_KNOTS('',1,(#252,#253),.UNSPECIFIED.,.F.,.F.,
  (2,2),(-3.811944091487E-02,3.811944091487E-02),
  .PIECEWISE_BEZIER_KNOTS.);
#252 = CARTESIAN_POINT('',(16.09270908675,3.680670439155,0.));
#253 = CARTESIAN_POINT('',(16.09270908675,2.45378029277,0.));
#254 = ORIENTED_EDGE('',*,*,#193,.T.);
#255 = ORIENTED_EDGE('',*,*,#158,.T.);
#256 = ORIENTED_EDGE('',*,*,#146,.T.);
#257 = ORIENTED_EDGE('',*,*,#250,.F.);
#258 = ( BOUNDED_SURFACE() B_SPLINE_SURFACE(1,2,(
    (#259,#260,#261,#262,#263,#264,#265,#266,#267)
    ,(#268,#269,#270,#271,#272,#273,#274,#275,#276
)),.UNSPECIFIED.,.F.,.T.,.F.) B_SPLINE_SURFACE_WITH_KNOTS((2,2),(1,2,2,2
    ,2,2,1),(-3.811944091487E-02,3.811944091487E-02),(-4.712388980385,
    -3.14159265359,-1.570796326795,0.,1.570796326795,3.14159265359,
4.712388980385),.UNSPECIFIED.) GEOMETRIC_REPRESENTATION_ITEM() 
RATIONAL_B_SPLINE_SURFACE((
    (1.,0.707106781187,1.,0.707106781187,1.,0.707106781187,1.
      ,0.707106781187,1.)
    ,(1.,0.707106781187,1.,0.707106781187,1.,0.707106781187,1.
,0.707106781187,1.))) REPRESENTATION_ITEM('') SURFACE() );
#259 = CARTESIAN_POINT('',(16.09270908675,3.680670439155,0.));
#260 = CARTESIAN_POINT('',(16.09270908675,3.680670439155,-16.09270908675
    ));
#261 = CARTESIAN_POINT('',(0.,3.680670439155,-16.09270908675));
#262 = CARTESIAN_POINT('',(-16.09270908675,3.680670439155,
    -16.09270908675));
#263 = CARTESIAN_POINT('',(-16.09270908675,3.680670439155,0.));
#264 = CARTESIAN_POINT('',(-16.09270908675,3.680670439155,16.09270908675
    ));
#265 = CARTESIAN_POINT('',(0.,3.680670439155,16.09270908675));
#266 = CARTESIAN_POINT('',(16.09270908675,3.680670439155,16.09270908675)
  );
#267 = CARTESIAN_POINT('',(16.09270908675,3.680670439155,0.));
#268 = CARTESIAN_POINT('',(16.09270908675,2.45378029277,0.));
#269 = CARTESIAN_POINT('',(16.09270908675,2.45378029277,-16.09270908675)
  );
#270 = CARTESIAN_POINT('',(0.,2.45378029277,-16.09270908675));
#271 = CARTESIAN_POINT('',(-16.09270908675,2.45378029277,-16.09270908675
    ));
#272 = CARTESIAN_POINT('',(-16.09270908675,2.45378029277,0.));
#273 = CARTESIAN_POINT('',(-16.09270908675,2.45378029277,16.09270908675)
  );
#274 = CARTESIAN_POINT('',(0.,2.45378029277,16.09270908675));
#275 = CARTESIAN_POINT('',(16.09270908675,2.45378029277,16.09270908675)
  );
#276 = CARTESIAN_POINT('',(16.09270908675,2.45378029277,0.));
#277 = ADVANCED_FACE('',(#278,#282),#285,.T.);
#278 = FACE_BOUND('',#279,.T.);
#279 = EDGE_LOOP('',(#280,#281));
#280 = ORIENTED_EDGE('',*,*,#230,.T.);
#281 = ORIENTED_EDGE('',*,*,#242,.T.);
#282 = FACE_BOUND('',#283,.T.);
#283 = EDGE_LOOP('',(#284));
#284 = ORIENTED_EDGE('',*,*,#101,.T.);
#285 = B_SPLINE_SURFACE_WITH_KNOTS('',1,1,(
    (#286,#287)
    ,(#288,#289
    )),.UNSPECIFIED.,.F.,.F.,.F.,(2,2),(2,2),(-1.99998,1.99998),(
    -1.99998,1.99998),.PIECEWISE_BEZIER_KNOTS.);
#286 = CARTESIAN_POINT('',(-16.10075954702,3.680670439155,
    -16.10075954702));
#287 = CARTESIAN_POINT('',(16.100759547028,3.680670439155,
    -16.10075954702));
#288 = CARTESIAN_POINT('',(-16.10075954702,3.680670439155,
    16.100759547028));
#289 = CARTESIAN_POINT('',(16.100759547028,3.680670439155,
    16.100759547028));
#290 = ADVANCED_FACE('',(#291),#295,.T.);
#291 = FACE_BOUND('',#292,.T.);
#292 = EDGE_LOOP('',(#293,#294));
#293 = ORIENTED_EDGE('',*,*,#182,.F.);
#294 = ORIENTED_EDGE('',*,*,#174,.F.);
#295 = B_SPLINE_SURFACE_WITH_KNOTS('',1,1,(
    (#296,#297)
    ,(#298,#299
    )),.UNSPECIFIED.,.F.,.F.,.F.,(2,2),(2,2),(-1.268317496186,
    1.268317496186),(-1.E-03,2.535634992371),.PIECEWISE_BEZIER_KNOTS.);
#296 = CARTESIAN_POINT('',(-10.21053962308,0.,10.210539623084));
#297 = CARTESIAN_POINT('',(10.210539623084,0.,10.210539623084));
#298 = CARTESIAN_POINT('',(-10.21053962308,0.,-10.21053962308));
#299 = CARTESIAN_POINT('',(10.210539623084,0.,-10.21053962308));
#300 = ( GEOMETRIC_REPRESENTATION_CONTEXT(3) 
GLOBAL_UNCERTAINTY_ASSIGNED_CONTEXT((#304)) GLOBAL_UNIT_ASSIGNED_CONTEXT
((#301,#302,#303)) REPRESENTATION_CONTEXT('Context #1',
  '3D Context with UNIT and UNCERTAINTY') );
#301 = ( LENGTH_UNIT() NAMED_UNIT(*) SI_UNIT(.MILLI.,.METRE.) );
#302 = ( NAMED_UNIT(*) PLANE_ANGLE_UNIT() SI_UNIT($,.RADIAN.) );
#303 = ( NAMED_UNIT(*) SI_UNIT($,.STERADIAN.) SOLID_ANGLE_UNIT() );
#304 = UNCERTAINTY_MEASURE_WITH_UNIT(LENGTH_MEASURE(2.E-07),#301,
  'distance_accuracy_value','confusion accuracy');
#305 = PRODUCT_RELATED_PRODUCT_CATEGORY('part',$,(#7));
ENDSEC;
END-ISO-10303-21;
