ISO-10303-21;
HEADER;
FILE_DESCRIPTION(('FreeCAD Model'),'2;1');
FILE_NAME('Open CASCADE Shape Model','2025-05-04T12:53:07',('FreeCAD'),(
    'FreeCAD'),'Open CASCADE STEP processor 7.6','FreeCAD','Unknown');
FILE_SCHEMA(('AUTOMOTIVE_DESIGN { 1 0 10303 214 1 1 1 1 }'));
ENDSEC;
DATA;
#1 = APPLICATION_PROTOCOL_DEFINITION('international standard',
  'automotive_design',2000,#2);
#2 = APPLICATION_CONTEXT(
  'core data for automotive mechanical design processes');
#3 = SHAPE_DEFINITION_REPRESENTATION(#4,#10);
#4 = PRODUCT_DEFINITION_SHAPE('','',#5);
#5 = PRODUCT_DEFINITION('design','',#6,#9);
#6 = PRODUCT_DEFINITION_FORMATION('','',#7);
#7 = PRODUCT('Open CASCADE STEP translator 7.6 1',
  'Open CASCADE STEP translator 7.6 1','',(#8));
#8 = PRODUCT_CONTEXT('',#2,'mechanical');
#9 = PRODUCT_DEFINITION_CONTEXT('part definition',#2,'design');
#10 = ADVANCED_BREP_SHAPE_REPRESENTATION('',(#11,#15),#241);
#11 = AXIS2_PLACEMENT_3D('',#12,#13,#14);
#12 = CARTESIAN_POINT('',(0.,0.,0.));
#13 = DIRECTION('',(0.,0.,1.));
#14 = DIRECTION('',(1.,0.,-0.));
#15 = MANIFOLD_SOLID_BREP('',#16);
#16 = CLOSED_SHELL('',(#17,#45,#82,#107,#135,#172,#197,#223));
#17 = ADVANCED_FACE('',(#18),#40,.T.);
#18 = FACE_BOUND('',#19,.T.);
#19 = EDGE_LOOP('',(#20,#32));
#20 = ORIENTED_EDGE('',*,*,#21,.T.);
#21 = EDGE_CURVE('',#22,#24,#26,.T.);
#22 = VERTEX_POINT('',#23);
#23 = CARTESIAN_POINT('',(-34.09323077634,-29.30502463423,
    235.28303018582));
#24 = VERTEX_POINT('',#25);
#25 = CARTESIAN_POINT('',(-34.09323077634,-22.41242558902,
    235.28303018582));
#26 = ( BOUNDED_CURVE() B_SPLINE_CURVE(2,(#27,#28,#29,#30,#31),
.UNSPECIFIED.,.F.,.F.) B_SPLINE_CURVE_WITH_KNOTS((3,2,3),(1.570796326795
,3.14159265359,4.712388980385),.PIECEWISE_BEZIER_KNOTS.) CURVE() 
GEOMETRIC_REPRESENTATION_ITEM() RATIONAL_B_SPLINE_CURVE((1.,
0.707106781187,1.,0.707106781187,1.)) REPRESENTATION_ITEM('') );
#27 = CARTESIAN_POINT('',(-34.09323077634,-29.30502463422,
    235.28303018582));
#28 = CARTESIAN_POINT('',(-34.09323077634,-29.30502463422,
    238.72932970841));
#29 = CARTESIAN_POINT('',(-34.09323077634,-25.85872511163,
    238.72932970841));
#30 = CARTESIAN_POINT('',(-34.09323077634,-22.41242558904,
    238.72932970841));
#31 = CARTESIAN_POINT('',(-34.09323077634,-22.41242558904,
    235.28303018582));
#32 = ORIENTED_EDGE('',*,*,#33,.T.);
#33 = EDGE_CURVE('',#24,#22,#34,.T.);
#34 = ( BOUNDED_CURVE() B_SPLINE_CURVE(2,(#35,#36,#37,#38,#39),
.UNSPECIFIED.,.F.,.F.) B_SPLINE_CURVE_WITH_KNOTS((3,2,3),(4.712388980385
,6.28318530718,7.853981633974),.PIECEWISE_BEZIER_KNOTS.) CURVE() 
GEOMETRIC_REPRESENTATION_ITEM() RATIONAL_B_SPLINE_CURVE((1.,
0.707106781187,1.,0.707106781187,1.)) REPRESENTATION_ITEM('') );
#35 = CARTESIAN_POINT('',(-34.09323077634,-22.41242558904,
    235.28303018582));
#36 = CARTESIAN_POINT('',(-34.09323077634,-22.41242558904,
    231.83673066323));
#37 = CARTESIAN_POINT('',(-34.09323077634,-25.85872511163,
    231.83673066323));
#38 = CARTESIAN_POINT('',(-34.09323077634,-29.30502463422,
    231.83673066323));
#39 = CARTESIAN_POINT('',(-34.09323077634,-29.30502463422,
    235.28303018582));
#40 = B_SPLINE_SURFACE_WITH_KNOTS('',1,1,(
    (#41,#42)
    ,(#43,#44
    )),.UNSPECIFIED.,.F.,.F.,.F.,(2,2),(2,2),(19.18275966471,
    25.08212430169),(198.42869162451,204.32805626149),
  .PIECEWISE_BEZIER_KNOTS.);
#41 = CARTESIAN_POINT('',(-34.09323077634,-22.41242558904,
    231.83673066323));
#42 = CARTESIAN_POINT('',(-34.09323077634,-22.41242558904,
    238.72932970841));
#43 = CARTESIAN_POINT('',(-34.09323077634,-29.30502463422,
    231.83673066323));
#44 = CARTESIAN_POINT('',(-34.09323077634,-29.30502463422,
    238.72932970841));
#45 = ADVANCED_FACE('',(#46),#71,.T.);
#46 = FACE_BOUND('',#47,.T.);
#47 = EDGE_LOOP('',(#48,#60,#65,#66));
#48 = ORIENTED_EDGE('',*,*,#49,.T.);
#49 = EDGE_CURVE('',#50,#52,#54,.T.);
#50 = VERTEX_POINT('',#51);
#51 = CARTESIAN_POINT('',(-32.92486783061,-30.47338757996,
    235.28303018582));
#52 = VERTEX_POINT('',#53);
#53 = CARTESIAN_POINT('',(-32.92486783061,-21.2440626433,235.28303018582
    ));
#54 = ( BOUNDED_CURVE() B_SPLINE_CURVE(2,(#55,#56,#57,#58,#59),
.UNSPECIFIED.,.F.,.F.) B_SPLINE_CURVE_WITH_KNOTS((3,2,3),(1.570796326795
,3.14159265359,4.712388980385),.PIECEWISE_BEZIER_KNOTS.) CURVE() 
GEOMETRIC_REPRESENTATION_ITEM() RATIONAL_B_SPLINE_CURVE((1.,
0.707106781187,1.,0.707106781187,1.)) REPRESENTATION_ITEM('') );
#55 = CARTESIAN_POINT('',(-32.92486783061,-30.47338757994,
    235.28303018582));
#56 = CARTESIAN_POINT('',(-32.92486783061,-30.47338757994,
    239.89769265414));
#57 = CARTESIAN_POINT('',(-32.92486783061,-25.85872511163,
    239.89769265414));
#58 = CARTESIAN_POINT('',(-32.92486783061,-21.24406264331,
    239.89769265414));
#59 = CARTESIAN_POINT('',(-32.92486783061,-21.24406264331,
    235.28303018582));
#60 = ORIENTED_EDGE('',*,*,#61,.F.);
#61 = EDGE_CURVE('',#24,#52,#62,.T.);
#62 = B_SPLINE_CURVE_WITH_KNOTS('',1,(#63,#64),.UNSPECIFIED.,.F.,.F.,(2,
    2),(-0.707106781187,0.707106781187),.PIECEWISE_BEZIER_KNOTS.);
#63 = CARTESIAN_POINT('',(-34.09323077634,-22.41242558902,
    235.28303018582));
#64 = CARTESIAN_POINT('',(-32.92486783061,-21.2440626433,235.28303018582
    ));
#65 = ORIENTED_EDGE('',*,*,#21,.F.);
#66 = ORIENTED_EDGE('',*,*,#67,.T.);
#67 = EDGE_CURVE('',#22,#50,#68,.T.);
#68 = B_SPLINE_CURVE_WITH_KNOTS('',1,(#69,#70),.UNSPECIFIED.,.F.,.F.,(2,
    2),(-0.707106781187,0.707106781187),.PIECEWISE_BEZIER_KNOTS.);
#69 = CARTESIAN_POINT('',(-34.09323077634,-29.30502463423,
    235.28303018582));
#70 = CARTESIAN_POINT('',(-32.92486783061,-30.47338757996,
    235.28303018582));
#71 = ( BOUNDED_SURFACE() B_SPLINE_SURFACE(2,1,(
    (#72,#73)
    ,(#74,#75)
    ,(#76,#77)
    ,(#78,#79)
,(#80,#81
    )),.UNSPECIFIED.,.F.,.F.,.F.) B_SPLINE_SURFACE_WITH_KNOTS((3,2,3),(2
    ,2),(2.094395102393,3.665191429188,5.235987755983),(4.171480739508,
    5.585694301888),.PIECEWISE_BEZIER_KNOTS.) 
GEOMETRIC_REPRESENTATION_ITEM() RATIONAL_B_SPLINE_SURFACE((
    (1.,1.)
    ,(0.707106781187,0.707106781187)
    ,(1.,1.)
    ,(0.707106781187,0.707106781187)
,(1.,1.))) REPRESENTATION_ITEM('') SURFACE() );
#72 = CARTESIAN_POINT('',(-34.09323077634,-22.41242558903,
    235.28303018582));
#73 = CARTESIAN_POINT('',(-32.92486783061,-21.2440626433,235.28303018582
    ));
#74 = CARTESIAN_POINT('',(-34.09323077634,-22.41242558903,
    238.72932970842));
#75 = CARTESIAN_POINT('',(-32.92486783061,-21.2440626433,239.89769265415
    ));
#76 = CARTESIAN_POINT('',(-34.09323077634,-25.85872511163,
    238.72932970842));
#77 = CARTESIAN_POINT('',(-32.92486783061,-25.85872511163,
    239.89769265415));
#78 = CARTESIAN_POINT('',(-34.09323077634,-29.30502463422,
    238.72932970842));
#79 = CARTESIAN_POINT('',(-32.92486783061,-30.47338757995,
    239.89769265415));
#80 = CARTESIAN_POINT('',(-34.09323077634,-29.30502463422,
    235.28303018582));
#81 = CARTESIAN_POINT('',(-32.92486783061,-30.47338757995,
    235.28303018582));
#82 = ADVANCED_FACE('',(#83),#96,.T.);
#83 = FACE_BOUND('',#84,.T.);
#84 = EDGE_LOOP('',(#85,#93,#94,#95));
#85 = ORIENTED_EDGE('',*,*,#86,.T.);
#86 = EDGE_CURVE('',#52,#50,#87,.T.);
#87 = ( BOUNDED_CURVE() B_SPLINE_CURVE(2,(#88,#89,#90,#91,#92),
.UNSPECIFIED.,.F.,.F.) B_SPLINE_CURVE_WITH_KNOTS((3,2,3),(4.712388980385
,6.28318530718,7.853981633974),.PIECEWISE_BEZIER_KNOTS.) CURVE() 
GEOMETRIC_REPRESENTATION_ITEM() RATIONAL_B_SPLINE_CURVE((1.,
0.707106781187,1.,0.707106781187,1.)) REPRESENTATION_ITEM('') );
#88 = CARTESIAN_POINT('',(-32.92486783061,-21.24406264331,
    235.28303018582));
#89 = CARTESIAN_POINT('',(-32.92486783061,-21.24406264331,230.6683677175
    ));
#90 = CARTESIAN_POINT('',(-32.92486783061,-25.85872511163,230.6683677175
    ));
#91 = CARTESIAN_POINT('',(-32.92486783061,-30.47338757994,230.6683677175
    ));
#92 = CARTESIAN_POINT('',(-32.92486783061,-30.47338757994,
    235.28303018582));
#93 = ORIENTED_EDGE('',*,*,#67,.F.);
#94 = ORIENTED_EDGE('',*,*,#33,.F.);
#95 = ORIENTED_EDGE('',*,*,#61,.T.);
#96 = ( BOUNDED_SURFACE() B_SPLINE_SURFACE(2,1,(
    (#97,#98)
    ,(#99,#100)
    ,(#101,#102)
    ,(#103,#104)
,(#105,#106
    )),.UNSPECIFIED.,.F.,.F.,.F.) B_SPLINE_SURFACE_WITH_KNOTS((3,2,3),(2
    ,2),(3.14159265359,4.712388980385,6.28318530718),(4.171480739508,
    5.585694301888),.PIECEWISE_BEZIER_KNOTS.) 
GEOMETRIC_REPRESENTATION_ITEM() RATIONAL_B_SPLINE_SURFACE((
    (1.,1.)
    ,(0.707106781187,0.707106781187)
    ,(1.,1.)
    ,(0.707106781187,0.707106781187)
,(1.,1.))) REPRESENTATION_ITEM('') SURFACE() );
#97 = CARTESIAN_POINT('',(-34.09323077634,-29.30502463422,
    235.28303018582));
#98 = CARTESIAN_POINT('',(-32.92486783061,-30.47338757995,
    235.28303018582));
#99 = CARTESIAN_POINT('',(-34.09323077634,-29.30502463422,
    231.83673066323));
#100 = CARTESIAN_POINT('',(-32.92486783061,-30.47338757995,
    230.66836771749));
#101 = CARTESIAN_POINT('',(-34.09323077634,-25.85872511163,
    231.83673066323));
#102 = CARTESIAN_POINT('',(-32.92486783061,-25.85872511163,
    230.66836771749));
#103 = CARTESIAN_POINT('',(-34.09323077634,-22.41242558903,
    231.83673066323));
#104 = CARTESIAN_POINT('',(-32.92486783061,-21.2440626433,
    230.66836771749));
#105 = CARTESIAN_POINT('',(-34.09323077634,-22.41242558903,
    235.28303018582));
#106 = CARTESIAN_POINT('',(-32.92486783061,-21.2440626433,
    235.28303018582));
#107 = ADVANCED_FACE('',(#108),#130,.T.);
#108 = FACE_BOUND('',#109,.T.);
#109 = EDGE_LOOP('',(#110,#122));
#110 = ORIENTED_EDGE('',*,*,#111,.T.);
#111 = EDGE_CURVE('',#112,#114,#116,.T.);
#112 = VERTEX_POINT('',#113);
#113 = CARTESIAN_POINT('',(34.09323077634,-22.41242558902,
    235.28303018582));
#114 = VERTEX_POINT('',#115);
#115 = CARTESIAN_POINT('',(34.09323077634,-29.30502463423,
    235.28303018582));
#116 = ( BOUNDED_CURVE() B_SPLINE_CURVE(2,(#117,#118,#119,#120,#121),
.UNSPECIFIED.,.F.,.F.) B_SPLINE_CURVE_WITH_KNOTS((3,2,3),(4.712388980385
,6.28318530718,7.853981633974),.PIECEWISE_BEZIER_KNOTS.) CURVE() 
GEOMETRIC_REPRESENTATION_ITEM() RATIONAL_B_SPLINE_CURVE((1.,
0.707106781187,1.,0.707106781187,1.)) REPRESENTATION_ITEM('') );
#117 = CARTESIAN_POINT('',(34.09323077634,-22.41242558904,
    235.28303018582));
#118 = CARTESIAN_POINT('',(34.09323077634,-22.41242558904,
    238.72932970841));
#119 = CARTESIAN_POINT('',(34.09323077634,-25.85872511163,
    238.72932970841));
#120 = CARTESIAN_POINT('',(34.09323077634,-29.30502463422,
    238.72932970841));
#121 = CARTESIAN_POINT('',(34.09323077634,-29.30502463422,
    235.28303018582));
#122 = ORIENTED_EDGE('',*,*,#123,.T.);
#123 = EDGE_CURVE('',#114,#112,#124,.T.);
#124 = ( BOUNDED_CURVE() B_SPLINE_CURVE(2,(#125,#126,#127,#128,#129),
.UNSPECIFIED.,.F.,.F.) B_SPLINE_CURVE_WITH_KNOTS((3,2,3),(1.570796326795
,3.14159265359,4.712388980385),.PIECEWISE_BEZIER_KNOTS.) CURVE() 
GEOMETRIC_REPRESENTATION_ITEM() RATIONAL_B_SPLINE_CURVE((1.,
0.707106781187,1.,0.707106781187,1.)) REPRESENTATION_ITEM('') );
#125 = CARTESIAN_POINT('',(34.09323077634,-29.30502463422,
    235.28303018582));
#126 = CARTESIAN_POINT('',(34.09323077634,-29.30502463422,
    231.83673066323));
#127 = CARTESIAN_POINT('',(34.09323077634,-25.85872511163,
    231.83673066323));
#128 = CARTESIAN_POINT('',(34.09323077634,-22.41242558904,
    231.83673066323));
#129 = CARTESIAN_POINT('',(34.09323077634,-22.41242558904,
    235.28303018582));
#130 = B_SPLINE_SURFACE_WITH_KNOTS('',1,1,(
    (#131,#132)
    ,(#133,#134
    )),.UNSPECIFIED.,.F.,.F.,.F.,(2,2),(2,2),(-25.08212430165,
    -19.18275966467),(-9.16059136549,-3.26122672851),
  .PIECEWISE_BEZIER_KNOTS.);
#131 = CARTESIAN_POINT('',(34.09323077634,-29.30502463422,
    231.83673066323));
#132 = CARTESIAN_POINT('',(34.09323077634,-29.30502463422,
    238.72932970841));
#133 = CARTESIAN_POINT('',(34.09323077634,-22.41242558904,
    231.83673066323));
#134 = CARTESIAN_POINT('',(34.09323077634,-22.41242558904,
    238.72932970841));
#135 = ADVANCED_FACE('',(#136),#161,.T.);
#136 = FACE_BOUND('',#137,.T.);
#137 = EDGE_LOOP('',(#138,#150,#155,#156));
#138 = ORIENTED_EDGE('',*,*,#139,.T.);
#139 = EDGE_CURVE('',#140,#142,#144,.T.);
#140 = VERTEX_POINT('',#141);
#141 = CARTESIAN_POINT('',(32.924867830613,-30.47338757996,
    235.28303018582));
#142 = VERTEX_POINT('',#143);
#143 = CARTESIAN_POINT('',(32.924867830613,-21.2440626433,
    235.28303018582));
#144 = ( BOUNDED_CURVE() B_SPLINE_CURVE(2,(#145,#146,#147,#148,#149),
.UNSPECIFIED.,.F.,.F.) B_SPLINE_CURVE_WITH_KNOTS((3,2,3),(1.570796326795
,3.14159265359,4.712388980385),.PIECEWISE_BEZIER_KNOTS.) CURVE() 
GEOMETRIC_REPRESENTATION_ITEM() RATIONAL_B_SPLINE_CURVE((1.,
0.707106781187,1.,0.707106781187,1.)) REPRESENTATION_ITEM('') );
#145 = CARTESIAN_POINT('',(32.924867830613,-30.47338757994,
    235.28303018582));
#146 = CARTESIAN_POINT('',(32.924867830613,-30.47338757994,
    239.89769265414));
#147 = CARTESIAN_POINT('',(32.924867830613,-25.85872511163,
    239.89769265414));
#148 = CARTESIAN_POINT('',(32.924867830613,-21.24406264331,
    239.89769265414));
#149 = CARTESIAN_POINT('',(32.924867830613,-21.24406264331,
    235.28303018582));
#150 = ORIENTED_EDGE('',*,*,#151,.T.);
#151 = EDGE_CURVE('',#142,#52,#152,.T.);
#152 = B_SPLINE_CURVE_WITH_KNOTS('',1,(#153,#154),.UNSPECIFIED.,.F.,.F.,
  (2,2),(-27.57034237621,28.790342376782),.PIECEWISE_BEZIER_KNOTS.);
#153 = CARTESIAN_POINT('',(32.924867830613,-21.2440626433,
    235.28303018582));
#154 = CARTESIAN_POINT('',(-32.92486783061,-21.2440626433,
    235.28303018582));
#155 = ORIENTED_EDGE('',*,*,#49,.F.);
#156 = ORIENTED_EDGE('',*,*,#157,.F.);
#157 = EDGE_CURVE('',#140,#50,#158,.T.);
#158 = B_SPLINE_CURVE_WITH_KNOTS('',1,(#159,#160),.UNSPECIFIED.,.F.,.F.,
  (2,2),(-27.57034237621,28.790342376782),.PIECEWISE_BEZIER_KNOTS.);
#159 = CARTESIAN_POINT('',(32.924867830613,-30.47338757996,
    235.28303018582));
#160 = CARTESIAN_POINT('',(-32.92486783061,-30.47338757996,
    235.28303018582));
#161 = ( BOUNDED_SURFACE() B_SPLINE_SURFACE(2,1,(
    (#162,#163)
    ,(#164,#165)
    ,(#166,#167)
    ,(#168,#169)
,(#170,#171
    )),.UNSPECIFIED.,.F.,.F.,.F.) B_SPLINE_SURFACE_WITH_KNOTS((3,2,3),(2
    ,2),(3.14159265359,4.712388980385,6.28318530718),(-27.57034237621,
    28.790342376782),.PIECEWISE_BEZIER_KNOTS.) 
GEOMETRIC_REPRESENTATION_ITEM() RATIONAL_B_SPLINE_SURFACE((
    (1.,1.)
    ,(0.707106781187,0.707106781187)
    ,(1.,1.)
    ,(0.707106781187,0.707106781187)
,(1.,1.))) REPRESENTATION_ITEM('') SURFACE() );
#162 = CARTESIAN_POINT('',(32.924867830613,-30.47338757994,
    235.28303018582));
#163 = CARTESIAN_POINT('',(-32.92486783061,-30.47338757994,
    235.28303018582));
#164 = CARTESIAN_POINT('',(32.924867830613,-30.47338757994,
    239.89769265414));
#165 = CARTESIAN_POINT('',(-32.92486783061,-30.47338757994,
    239.89769265414));
#166 = CARTESIAN_POINT('',(32.924867830613,-25.85872511163,
    239.89769265414));
#167 = CARTESIAN_POINT('',(-32.92486783061,-25.85872511163,
    239.89769265414));
#168 = CARTESIAN_POINT('',(32.924867830613,-21.24406264331,
    239.89769265414));
#169 = CARTESIAN_POINT('',(-32.92486783061,-21.24406264331,
    239.89769265414));
#170 = CARTESIAN_POINT('',(32.924867830613,-21.24406264331,
    235.28303018582));
#171 = CARTESIAN_POINT('',(-32.92486783061,-21.24406264331,
    235.28303018582));
#172 = ADVANCED_FACE('',(#173),#186,.T.);
#173 = FACE_BOUND('',#174,.T.);
#174 = EDGE_LOOP('',(#175,#183,#184,#185));
#175 = ORIENTED_EDGE('',*,*,#176,.T.);
#176 = EDGE_CURVE('',#142,#140,#177,.T.);
#177 = ( BOUNDED_CURVE() B_SPLINE_CURVE(2,(#178,#179,#180,#181,#182),
.UNSPECIFIED.,.F.,.F.) B_SPLINE_CURVE_WITH_KNOTS((3,2,3),(4.712388980385
,6.28318530718,7.853981633974),.PIECEWISE_BEZIER_KNOTS.) CURVE() 
GEOMETRIC_REPRESENTATION_ITEM() RATIONAL_B_SPLINE_CURVE((1.,
0.707106781187,1.,0.707106781187,1.)) REPRESENTATION_ITEM('') );
#178 = CARTESIAN_POINT('',(32.924867830613,-21.24406264331,
    235.28303018582));
#179 = CARTESIAN_POINT('',(32.924867830613,-21.24406264331,
    230.6683677175));
#180 = CARTESIAN_POINT('',(32.924867830613,-25.85872511163,
    230.6683677175));
#181 = CARTESIAN_POINT('',(32.924867830613,-30.47338757994,
    230.6683677175));
#182 = CARTESIAN_POINT('',(32.924867830613,-30.47338757994,
    235.28303018582));
#183 = ORIENTED_EDGE('',*,*,#157,.T.);
#184 = ORIENTED_EDGE('',*,*,#86,.F.);
#185 = ORIENTED_EDGE('',*,*,#151,.F.);
#186 = ( BOUNDED_SURFACE() B_SPLINE_SURFACE(2,1,(
    (#187,#188)
    ,(#189,#190)
    ,(#191,#192)
    ,(#193,#194)
,(#195,#196
    )),.UNSPECIFIED.,.F.,.F.,.F.) B_SPLINE_SURFACE_WITH_KNOTS((3,2,3),(2
    ,2),(0.,1.570796326795,3.14159265359),(-27.57034237621,
    28.790342376782),.PIECEWISE_BEZIER_KNOTS.) 
GEOMETRIC_REPRESENTATION_ITEM() RATIONAL_B_SPLINE_SURFACE((
    (1.,1.)
    ,(0.707106781187,0.707106781187)
    ,(1.,1.)
    ,(0.707106781187,0.707106781187)
,(1.,1.))) REPRESENTATION_ITEM('') SURFACE() );
#187 = CARTESIAN_POINT('',(32.924867830613,-21.24406264331,
    235.28303018582));
#188 = CARTESIAN_POINT('',(-32.92486783061,-21.24406264331,
    235.28303018582));
#189 = CARTESIAN_POINT('',(32.924867830613,-21.24406264331,
    230.6683677175));
#190 = CARTESIAN_POINT('',(-32.92486783061,-21.24406264331,
    230.6683677175));
#191 = CARTESIAN_POINT('',(32.924867830613,-25.85872511163,
    230.6683677175));
#192 = CARTESIAN_POINT('',(-32.92486783061,-25.85872511163,
    230.6683677175));
#193 = CARTESIAN_POINT('',(32.924867830613,-30.47338757994,
    230.6683677175));
#194 = CARTESIAN_POINT('',(-32.92486783061,-30.47338757994,
    230.6683677175));
#195 = CARTESIAN_POINT('',(32.924867830613,-30.47338757994,
    235.28303018582));
#196 = CARTESIAN_POINT('',(-32.92486783061,-30.47338757994,
    235.28303018582));
#197 = ADVANCED_FACE('',(#198),#212,.T.);
#198 = FACE_BOUND('',#199,.T.);
#199 = EDGE_LOOP('',(#200,#201,#206,#207));
#200 = ORIENTED_EDGE('',*,*,#139,.F.);
#201 = ORIENTED_EDGE('',*,*,#202,.F.);
#202 = EDGE_CURVE('',#114,#140,#203,.T.);
#203 = B_SPLINE_CURVE_WITH_KNOTS('',1,(#204,#205),.UNSPECIFIED.,.F.,.F.,
  (2,2),(-0.707106781187,0.707106781187),.PIECEWISE_BEZIER_KNOTS.);
#204 = CARTESIAN_POINT('',(34.09323077634,-29.30502463423,
    235.28303018582));
#205 = CARTESIAN_POINT('',(32.924867830613,-30.47338757996,
    235.28303018582));
#206 = ORIENTED_EDGE('',*,*,#111,.F.);
#207 = ORIENTED_EDGE('',*,*,#208,.T.);
#208 = EDGE_CURVE('',#112,#142,#209,.T.);
#209 = B_SPLINE_CURVE_WITH_KNOTS('',1,(#210,#211),.UNSPECIFIED.,.F.,.F.,
  (2,2),(-0.707106781187,0.707106781187),.PIECEWISE_BEZIER_KNOTS.);
#210 = CARTESIAN_POINT('',(34.09323077634,-22.41242558902,
    235.28303018582));
#211 = CARTESIAN_POINT('',(32.924867830613,-21.2440626433,
    235.28303018582));
#212 = ( BOUNDED_SURFACE() B_SPLINE_SURFACE(2,1,(
    (#213,#214)
    ,(#215,#216)
    ,(#217,#218)
    ,(#219,#220)
,(#221,#222
    )),.UNSPECIFIED.,.F.,.F.,.F.) B_SPLINE_SURFACE_WITH_KNOTS((3,2,3),(2
    ,2),(3.14159265359,4.712388980385,6.28318530718),(4.171480739508,
    5.585694301888),.PIECEWISE_BEZIER_KNOTS.) 
GEOMETRIC_REPRESENTATION_ITEM() RATIONAL_B_SPLINE_SURFACE((
    (1.,1.)
    ,(0.707106781187,0.707106781187)
    ,(1.,1.)
    ,(0.707106781187,0.707106781187)
,(1.,1.))) REPRESENTATION_ITEM('') SURFACE() );
#213 = CARTESIAN_POINT('',(34.093230776344,-29.30502463422,
    235.28303018582));
#214 = CARTESIAN_POINT('',(32.92486783061,-30.47338757995,
    235.28303018582));
#215 = CARTESIAN_POINT('',(34.093230776344,-29.30502463422,
    238.72932970842));
#216 = CARTESIAN_POINT('',(32.924867830611,-30.47338757995,
    239.89769265415));
#217 = CARTESIAN_POINT('',(34.093230776344,-25.85872511163,
    238.72932970842));
#218 = CARTESIAN_POINT('',(32.924867830611,-25.85872511163,
    239.89769265415));
#219 = CARTESIAN_POINT('',(34.093230776344,-22.41242558903,
    238.72932970842));
#220 = CARTESIAN_POINT('',(32.924867830611,-21.2440626433,
    239.89769265415));
#221 = CARTESIAN_POINT('',(34.093230776344,-22.41242558903,
    235.28303018582));
#222 = CARTESIAN_POINT('',(32.92486783061,-21.2440626433,235.28303018582
    ));
#223 = ADVANCED_FACE('',(#224),#230,.T.);
#224 = FACE_BOUND('',#225,.T.);
#225 = EDGE_LOOP('',(#226,#227,#228,#229));
#226 = ORIENTED_EDGE('',*,*,#176,.F.);
#227 = ORIENTED_EDGE('',*,*,#208,.F.);
#228 = ORIENTED_EDGE('',*,*,#123,.F.);
#229 = ORIENTED_EDGE('',*,*,#202,.T.);
#230 = ( BOUNDED_SURFACE() B_SPLINE_SURFACE(2,1,(
    (#231,#232)
    ,(#233,#234)
    ,(#235,#236)
    ,(#237,#238)
,(#239,#240
    )),.UNSPECIFIED.,.F.,.F.,.F.) B_SPLINE_SURFACE_WITH_KNOTS((3,2,3),(2
    ,2),(2.094395102393,3.665191429188,5.235987755983),(4.171480739508,
    5.585694301888),.PIECEWISE_BEZIER_KNOTS.) 
GEOMETRIC_REPRESENTATION_ITEM() RATIONAL_B_SPLINE_SURFACE((
    (1.,1.)
    ,(0.707106781187,0.707106781187)
    ,(1.,1.)
    ,(0.707106781187,0.707106781187)
,(1.,1.))) REPRESENTATION_ITEM('') SURFACE() );
#231 = CARTESIAN_POINT('',(34.093230776344,-22.41242558903,
    235.28303018582));
#232 = CARTESIAN_POINT('',(32.92486783061,-21.2440626433,235.28303018582
    ));
#233 = CARTESIAN_POINT('',(34.093230776344,-22.41242558903,
    231.83673066323));
#234 = CARTESIAN_POINT('',(32.924867830611,-21.2440626433,
    230.66836771749));
#235 = CARTESIAN_POINT('',(34.093230776344,-25.85872511163,
    231.83673066323));
#236 = CARTESIAN_POINT('',(32.924867830611,-25.85872511163,
    230.66836771749));
#237 = CARTESIAN_POINT('',(34.093230776344,-29.30502463422,
    231.83673066323));
#238 = CARTESIAN_POINT('',(32.924867830611,-30.47338757995,
    230.66836771749));
#239 = CARTESIAN_POINT('',(34.093230776344,-29.30502463422,
    235.28303018582));
#240 = CARTESIAN_POINT('',(32.92486783061,-30.47338757995,
    235.28303018582));
#241 = ( GEOMETRIC_REPRESENTATION_CONTEXT(3) 
GLOBAL_UNCERTAINTY_ASSIGNED_CONTEXT((#245)) GLOBAL_UNIT_ASSIGNED_CONTEXT
((#242,#243,#244)) REPRESENTATION_CONTEXT('Context #1',
  '3D Context with UNIT and UNCERTAINTY') );
#242 = ( LENGTH_UNIT() NAMED_UNIT(*) SI_UNIT(.MILLI.,.METRE.) );
#243 = ( NAMED_UNIT(*) PLANE_ANGLE_UNIT() SI_UNIT($,.RADIAN.) );
#244 = ( NAMED_UNIT(*) SI_UNIT($,.STERADIAN.) SOLID_ANGLE_UNIT() );
#245 = UNCERTAINTY_MEASURE_WITH_UNIT(LENGTH_MEASURE(1.E-07),#242,
  'distance_accuracy_value','confusion accuracy');
#246 = PRODUCT_RELATED_PRODUCT_CATEGORY('part',$,(#7));
ENDSEC;
END-ISO-10303-21;
