ISO-10303-21;
HEADER;
FILE_DESCRIPTION(('FreeCAD Model'),'2;1');
FILE_NAME('Open CASCADE Shape Model','2025-05-04T09:55:36',('FreeCAD'),(
    'FreeCAD'),'Open CASCADE STEP processor 7.6','FreeCAD','Unknown');
FILE_SCHEMA(('AUTOMOTIVE_DESIGN { 1 0 10303 214 1 1 1 1 }'));
ENDSEC;
DATA;
#1 = APPLICATION_PROTOCOL_DEFINITION('international standard',
  'automotive_design',2000,#2);
#2 = APPLICATION_CONTEXT(
  'core data for automotive mechanical design processes');
#3 = SHAPE_DEFINITION_REPRESENTATION(#4,#10);
#4 = PRODUCT_DEFINITION_SHAPE('','',#5);
#5 = PRODUCT_DEFINITION('design','',#6,#9);
#6 = PRODUCT_DEFINITION_FORMATION('','',#7);
#7 = PRODUCT('Open CASCADE STEP translator 7.6 1',
  'Open CASCADE STEP translator 7.6 1','',(#8));
#8 = PRODUCT_CONTEXT('',#2,'mechanical');
#9 = PRODUCT_DEFINITION_CONTEXT('part definition',#2,'design');
#10 = ADVANCED_BREP_SHAPE_REPRESENTATION('',(#11,#15),#145);
#11 = AXIS2_PLACEMENT_3D('',#12,#13,#14);
#12 = CARTESIAN_POINT('',(0.,0.,0.));
#13 = DIRECTION('',(0.,0.,1.));
#14 = DIRECTION('',(1.,0.,-0.));
#15 = MANIFOLD_SOLID_BREP('',#16);
#16 = CLOSED_SHELL('',(#17,#69,#121,#133));
#17 = ADVANCED_FACE('',(#18),#50,.F.);
#18 = FACE_BOUND('',#19,.F.);
#19 = EDGE_LOOP('',(#20,#29,#39,#40));
#20 = ORIENTED_EDGE('',*,*,#21,.T.);
#21 = EDGE_CURVE('',#22,#24,#26,.T.);
#22 = VERTEX_POINT('',#23);
#23 = CARTESIAN_POINT('',(-6.228643384036,-7.62788818329E-16,
    3.933880032023));
#24 = VERTEX_POINT('',#25);
#25 = CARTESIAN_POINT('',(-6.228643384036,-7.62788818329E-16,0.));
#26 = B_SPLINE_CURVE_WITH_KNOTS('',1,(#27,#28),.UNSPECIFIED.,.F.,.F.,(2,
    2),(-3.,0.),.PIECEWISE_BEZIER_KNOTS.);
#27 = CARTESIAN_POINT('',(-6.228643384036,-7.62788818329E-16,
    3.933880032023));
#28 = CARTESIAN_POINT('',(-6.228643384036,-7.62788818329E-16,0.));
#29 = ORIENTED_EDGE('',*,*,#30,.F.);
#30 = EDGE_CURVE('',#24,#24,#31,.T.);
#31 = ( BOUNDED_CURVE() B_SPLINE_CURVE(2,(#32,#33,#34,#35,#36,#37,#38),
.UNSPECIFIED.,.T.,.F.) B_SPLINE_CURVE_WITH_KNOTS((3,2,2,3),(
    3.14159265359,5.235987755983,7.330382858376,9.424777960769),
.PIECEWISE_BEZIER_KNOTS.) CURVE() GEOMETRIC_REPRESENTATION_ITEM() 
RATIONAL_B_SPLINE_CURVE((1.,0.5,1.,0.5,1.,0.5,1.)) REPRESENTATION_ITEM(
  '') );
#32 = CARTESIAN_POINT('',(-6.228643384036,-7.62788818329E-16,0.));
#33 = CARTESIAN_POINT('',(-6.228643384036,10.788326803377,0.));
#34 = CARTESIAN_POINT('',(3.114321692018,5.394163401689,0.));
#35 = CARTESIAN_POINT('',(12.457286768071,1.411544854873E-14,0.));
#36 = CARTESIAN_POINT('',(3.114321692018,-5.394163401689,0.));
#37 = CARTESIAN_POINT('',(-6.228643384036,-10.78832680337,0.));
#38 = CARTESIAN_POINT('',(-6.228643384036,-1.33526597304E-14,0.));
#39 = ORIENTED_EDGE('',*,*,#21,.F.);
#40 = ORIENTED_EDGE('',*,*,#41,.T.);
#41 = EDGE_CURVE('',#22,#22,#42,.T.);
#42 = ( BOUNDED_CURVE() B_SPLINE_CURVE(2,(#43,#44,#45,#46,#47,#48,#49),
.UNSPECIFIED.,.T.,.F.) B_SPLINE_CURVE_WITH_KNOTS((3,2,2,3),(
    3.14159265359,5.235987755983,7.330382858376,9.424777960769),
.PIECEWISE_BEZIER_KNOTS.) CURVE() GEOMETRIC_REPRESENTATION_ITEM() 
RATIONAL_B_SPLINE_CURVE((1.,0.5,1.,0.5,1.,0.5,1.)) REPRESENTATION_ITEM(
  '') );
#43 = CARTESIAN_POINT('',(-6.228643384036,-7.62788818329E-16,
    3.933880032023));
#44 = CARTESIAN_POINT('',(-6.228643384036,10.788326803377,3.933880032023
    ));
#45 = CARTESIAN_POINT('',(3.114321692018,5.394163401689,3.933880032023)
  );
#46 = CARTESIAN_POINT('',(12.457286768071,1.411544854873E-14,
    3.933880032023));
#47 = CARTESIAN_POINT('',(3.114321692018,-5.394163401689,3.933880032023)
  );
#48 = CARTESIAN_POINT('',(-6.228643384036,-10.78832680337,3.933880032023
    ));
#49 = CARTESIAN_POINT('',(-6.228643384036,-1.33526597304E-14,
    3.933880032023));
#50 = ( BOUNDED_SURFACE() B_SPLINE_SURFACE(2,1,(
    (#51,#52)
    ,(#53,#54)
    ,(#55,#56)
    ,(#57,#58)
    ,(#59,#60)
    ,(#61,#62)
    ,(#63,#64)
    ,(#65,#66)
,(#67,#68
    )),.UNSPECIFIED.,.T.,.F.,.F.) B_SPLINE_SURFACE_WITH_KNOTS((3,2,2,2,3
    ),(2,2),(-3.14159265359,-2.094395102393,0.,2.094395102393,
3.14159265359),(0.,3.),.UNSPECIFIED.) GEOMETRIC_REPRESENTATION_ITEM() 
RATIONAL_B_SPLINE_SURFACE((
    (0.75,0.75)
    ,(0.75,0.75)
    ,(1.,1.)
    ,(0.5,0.5)
    ,(1.,1.)
    ,(0.5,0.5)
    ,(1.,1.)
    ,(0.75,0.75)
,(0.75,0.75))) REPRESENTATION_ITEM('') SURFACE() );
#51 = CARTESIAN_POINT('',(-6.228643384036,0.,0.));
#52 = CARTESIAN_POINT('',(-6.228643384036,0.,3.933880032023));
#53 = CARTESIAN_POINT('',(-6.228643384036,-3.596108934459,0.));
#54 = CARTESIAN_POINT('',(-6.228643384036,-3.596108934459,3.933880032023
    ));
#55 = CARTESIAN_POINT('',(-3.114321692018,-5.394163401689,0.));
#56 = CARTESIAN_POINT('',(-3.114321692018,-5.394163401689,3.933880032023
    ));
#57 = CARTESIAN_POINT('',(6.228643384036,-10.78832680337,0.));
#58 = CARTESIAN_POINT('',(6.228643384036,-10.78832680337,3.933880032023)
  );
#59 = CARTESIAN_POINT('',(6.228643384036,0.,0.));
#60 = CARTESIAN_POINT('',(6.228643384036,0.,3.933880032023));
#61 = CARTESIAN_POINT('',(6.228643384036,10.788326803377,0.));
#62 = CARTESIAN_POINT('',(6.228643384036,10.788326803377,3.933880032023)
  );
#63 = CARTESIAN_POINT('',(-3.114321692018,5.394163401689,0.));
#64 = CARTESIAN_POINT('',(-3.114321692018,5.394163401689,3.933880032023)
  );
#65 = CARTESIAN_POINT('',(-6.228643384036,3.596108934459,0.));
#66 = CARTESIAN_POINT('',(-6.228643384036,3.596108934459,3.933880032023)
  );
#67 = CARTESIAN_POINT('',(-6.228643384036,0.,0.));
#68 = CARTESIAN_POINT('',(-6.228643384036,0.,3.933880032023));
#69 = ADVANCED_FACE('',(#70),#102,.T.);
#70 = FACE_BOUND('',#71,.T.);
#71 = EDGE_LOOP('',(#72,#84,#91,#101));
#72 = ORIENTED_EDGE('',*,*,#73,.F.);
#73 = EDGE_CURVE('',#74,#74,#76,.T.);
#74 = VERTEX_POINT('',#75);
#75 = CARTESIAN_POINT('',(-18.3581068161,-2.248219675075E-15,
    3.933880032023));
#76 = ( BOUNDED_CURVE() B_SPLINE_CURVE(2,(#77,#78,#79,#80,#81,#82,#83),
.UNSPECIFIED.,.T.,.F.) B_SPLINE_CURVE_WITH_KNOTS((3,2,2,3),(
    3.14159265359,5.235987755983,7.330382858376,9.424777960769),
.PIECEWISE_BEZIER_KNOTS.) CURVE() GEOMETRIC_REPRESENTATION_ITEM() 
RATIONAL_B_SPLINE_CURVE((1.,0.5,1.,0.5,1.,0.5,1.)) REPRESENTATION_ITEM(
  '') );
#77 = CARTESIAN_POINT('',(-18.3581068161,2.248219675075E-15,
    3.933880032023));
#78 = CARTESIAN_POINT('',(-18.3581068161,-31.79717373627,3.933880032023)
  );
#79 = CARTESIAN_POINT('',(9.179053408053,-15.89858686813,3.933880032023)
  );
#80 = CARTESIAN_POINT('',(36.71621363221,-4.160342730153E-14,
    3.933880032023));
#81 = CARTESIAN_POINT('',(9.179053408053,15.898586868135,3.933880032023)
  );
#82 = CARTESIAN_POINT('',(-18.3581068161,31.797173736271,3.933880032023)
  );
#83 = CARTESIAN_POINT('',(-18.3581068161,3.935520762645E-14,
    3.933880032023));
#84 = ORIENTED_EDGE('',*,*,#85,.T.);
#85 = EDGE_CURVE('',#74,#86,#88,.T.);
#86 = VERTEX_POINT('',#87);
#87 = CARTESIAN_POINT('',(-18.3581068161,-2.248219675075E-15,0.));
#88 = B_SPLINE_CURVE_WITH_KNOTS('',1,(#89,#90),.UNSPECIFIED.,.F.,.F.,(2,
    2),(-3.,0.),.PIECEWISE_BEZIER_KNOTS.);
#89 = CARTESIAN_POINT('',(-18.3581068161,-2.248219675075E-15,
    3.933880032023));
#90 = CARTESIAN_POINT('',(-18.3581068161,-2.248219675075E-15,0.));
#91 = ORIENTED_EDGE('',*,*,#92,.T.);
#92 = EDGE_CURVE('',#86,#86,#93,.T.);
#93 = ( BOUNDED_CURVE() B_SPLINE_CURVE(2,(#94,#95,#96,#97,#98,#99,#100),
.UNSPECIFIED.,.T.,.F.) B_SPLINE_CURVE_WITH_KNOTS((3,2,2,3),(
    3.14159265359,5.235987755983,7.330382858376,9.424777960769),
.PIECEWISE_BEZIER_KNOTS.) CURVE() GEOMETRIC_REPRESENTATION_ITEM() 
RATIONAL_B_SPLINE_CURVE((1.,0.5,1.,0.5,1.,0.5,1.)) REPRESENTATION_ITEM(
  '') );
#94 = CARTESIAN_POINT('',(-18.3581068161,2.248219675075E-15,0.));
#95 = CARTESIAN_POINT('',(-18.3581068161,-31.79717373627,0.));
#96 = CARTESIAN_POINT('',(9.179053408053,-15.89858686813,0.));
#97 = CARTESIAN_POINT('',(36.71621363221,-4.160342730153E-14,0.));
#98 = CARTESIAN_POINT('',(9.179053408053,15.898586868135,0.));
#99 = CARTESIAN_POINT('',(-18.3581068161,31.797173736271,0.));
#100 = CARTESIAN_POINT('',(-18.3581068161,3.935520762645E-14,0.));
#101 = ORIENTED_EDGE('',*,*,#85,.F.);
#102 = ( BOUNDED_SURFACE() B_SPLINE_SURFACE(2,1,(
    (#103,#104)
    ,(#105,#106)
    ,(#107,#108)
    ,(#109,#110)
    ,(#111,#112)
    ,(#113,#114)
    ,(#115,#116)
    ,(#117,#118)
,(#119,#120
    )),.UNSPECIFIED.,.T.,.F.,.F.) B_SPLINE_SURFACE_WITH_KNOTS((3,2,2,2,3
    ),(2,2),(-3.14159265359,-2.094395102393,0.,2.094395102393,
3.14159265359),(0.,3.),.UNSPECIFIED.) GEOMETRIC_REPRESENTATION_ITEM() 
RATIONAL_B_SPLINE_SURFACE((
    (0.75,0.75)
    ,(0.75,0.75)
    ,(1.,1.)
    ,(0.5,0.5)
    ,(1.,1.)
    ,(0.5,0.5)
    ,(1.,1.)
    ,(0.75,0.75)
,(0.75,0.75))) REPRESENTATION_ITEM('') SURFACE() );
#103 = CARTESIAN_POINT('',(-18.3581068161,-2.329324900088E-15,0.));
#104 = CARTESIAN_POINT('',(-18.3581068161,-2.329324900088E-15,
    3.933880032023));
#105 = CARTESIAN_POINT('',(-18.3581068161,-10.59905791209,0.));
#106 = CARTESIAN_POINT('',(-18.3581068161,-10.59905791209,3.933880032023
    ));
#107 = CARTESIAN_POINT('',(-9.179053408053,-15.89858686813,0.));
#108 = CARTESIAN_POINT('',(-9.179053408053,-15.89858686813,
    3.933880032023));
#109 = CARTESIAN_POINT('',(18.358106816105,-31.79717373627,0.));
#110 = CARTESIAN_POINT('',(18.358106816105,-31.79717373627,
    3.933880032023));
#111 = CARTESIAN_POINT('',(18.358106816105,0.,0.));
#112 = CARTESIAN_POINT('',(18.358106816105,0.,3.933880032023));
#113 = CARTESIAN_POINT('',(18.358106816105,31.797173736271,0.));
#114 = CARTESIAN_POINT('',(18.358106816105,31.797173736271,
    3.933880032023));
#115 = CARTESIAN_POINT('',(-9.179053408053,15.898586868135,0.));
#116 = CARTESIAN_POINT('',(-9.179053408053,15.898586868135,
    3.933880032023));
#117 = CARTESIAN_POINT('',(-18.3581068161,10.59905791209,0.));
#118 = CARTESIAN_POINT('',(-18.3581068161,10.59905791209,3.933880032023)
  );
#119 = CARTESIAN_POINT('',(-18.3581068161,-2.329324900088E-15,0.));
#120 = CARTESIAN_POINT('',(-18.3581068161,-2.329324900088E-15,
    3.933880032023));
#121 = ADVANCED_FACE('',(#122,#125),#128,.T.);
#122 = FACE_BOUND('',#123,.T.);
#123 = EDGE_LOOP('',(#124));
#124 = ORIENTED_EDGE('',*,*,#73,.T.);
#125 = FACE_BOUND('',#126,.T.);
#126 = EDGE_LOOP('',(#127));
#127 = ORIENTED_EDGE('',*,*,#41,.T.);
#128 = B_SPLINE_SURFACE_WITH_KNOTS('',1,1,(
    (#129,#130)
    ,(#131,#132
    )),.UNSPECIFIED.,.F.,.F.,.F.,(2,2),(2,2),(-14.,14.),(-14.,14.),
  .PIECEWISE_BEZIER_KNOTS.);
#129 = CARTESIAN_POINT('',(-18.3581068161,-18.3581068161,3.933880032023)
  );
#130 = CARTESIAN_POINT('',(-18.3581068161,18.358106816105,3.933880032023
    ));
#131 = CARTESIAN_POINT('',(18.358106816105,-18.3581068161,3.933880032023
    ));
#132 = CARTESIAN_POINT('',(18.358106816105,18.358106816105,
    3.933880032023));
#133 = ADVANCED_FACE('',(#134,#137),#140,.F.);
#134 = FACE_BOUND('',#135,.T.);
#135 = EDGE_LOOP('',(#136));
#136 = ORIENTED_EDGE('',*,*,#92,.F.);
#137 = FACE_BOUND('',#138,.T.);
#138 = EDGE_LOOP('',(#139));
#139 = ORIENTED_EDGE('',*,*,#30,.F.);
#140 = B_SPLINE_SURFACE_WITH_KNOTS('',1,1,(
    (#141,#142)
    ,(#143,#144
    )),.UNSPECIFIED.,.F.,.F.,.F.,(2,2),(2,2),(-14.,14.),(-14.,14.),
  .PIECEWISE_BEZIER_KNOTS.);
#141 = CARTESIAN_POINT('',(-18.3581068161,-18.3581068161,0.));
#142 = CARTESIAN_POINT('',(-18.3581068161,18.358106816105,0.));
#143 = CARTESIAN_POINT('',(18.358106816105,-18.3581068161,0.));
#144 = CARTESIAN_POINT('',(18.358106816105,18.358106816105,0.));
#145 = ( GEOMETRIC_REPRESENTATION_CONTEXT(3) 
GLOBAL_UNCERTAINTY_ASSIGNED_CONTEXT((#149)) GLOBAL_UNIT_ASSIGNED_CONTEXT
((#146,#147,#148)) REPRESENTATION_CONTEXT('Context #1',
  '3D Context with UNIT and UNCERTAINTY') );
#146 = ( LENGTH_UNIT() NAMED_UNIT(*) SI_UNIT(.MILLI.,.METRE.) );
#147 = ( NAMED_UNIT(*) PLANE_ANGLE_UNIT() SI_UNIT($,.RADIAN.) );
#148 = ( NAMED_UNIT(*) SI_UNIT($,.STERADIAN.) SOLID_ANGLE_UNIT() );
#149 = UNCERTAINTY_MEASURE_WITH_UNIT(LENGTH_MEASURE(2.E-07),#146,
  'distance_accuracy_value','confusion accuracy');
#150 = PRODUCT_RELATED_PRODUCT_CATEGORY('part',$,(#7));
ENDSEC;
END-ISO-10303-21;
