ISO-10303-21;
HEADER;
FILE_DESCRIPTION(('FreeCAD Model'),'2;1');
FILE_NAME('Open CASCADE Shape Model','2025-05-04T09:04:21',('FreeCAD'),(
    'FreeCAD'),'Open CASCADE STEP processor 7.6','FreeCAD','Unknown');
FILE_SCHEMA(('AUTOMOTIVE_DESIGN { 1 0 10303 214 1 1 1 1 }'));
ENDSEC;
DATA;
#1 = APPLICATION_PROTOCOL_DEFINITION('international standard',
  'automotive_design',2000,#2);
#2 = APPLICATION_CONTEXT(
  'core data for automotive mechanical design processes');
#3 = SHAPE_DEFINITION_REPRESENTATION(#4,#10);
#4 = PRODUCT_DEFINITION_SHAPE('','',#5);
#5 = PRODUCT_DEFINITION('design','',#6,#9);
#6 = PRODUCT_DEFINITION_FORMATION('','',#7);
#7 = PRODUCT('Open CASCADE STEP translator 7.6 1',
  'Open CASCADE STEP translator 7.6 1','',(#8));
#8 = PRODUCT_CONTEXT('',#2,'mechanical');
#9 = PRODUCT_DEFINITION_CONTEXT('part definition',#2,'design');
#10 = ADVANCED_BREP_SHAPE_REPRESENTATION('',(#11,#15),#124);
#11 = AXIS2_PLACEMENT_3D('',#12,#13,#14);
#12 = CARTESIAN_POINT('',(0.,0.,0.));
#13 = DIRECTION('',(0.,0.,1.));
#14 = DIRECTION('',(1.,0.,-0.));
#15 = MANIFOLD_SOLID_BREP('',#16);
#16 = CLOSED_SHELL('',(#17,#82));
#17 = ADVANCED_FACE('',(#18),#60,.T.);
#18 = FACE_BOUND('',#19,.T.);
#19 = EDGE_LOOP('',(#20,#30,#43,#44,#52));
#20 = ORIENTED_EDGE('',*,*,#21,.F.);
#21 = EDGE_CURVE('',#22,#24,#26,.T.);
#22 = VERTEX_POINT('',#23);
#23 = CARTESIAN_POINT('',(-9.041627632441E-15,29.551446955471,0.));
#24 = VERTEX_POINT('',#25);
#25 = CARTESIAN_POINT('',(29.551446955471,1.085113187865E-14,0.));
#26 = ( BOUNDED_CURVE() B_SPLINE_CURVE(2,(#27,#28,#29),.UNSPECIFIED.,.F.
,.F.) B_SPLINE_CURVE_WITH_KNOTS((3,3),(1.570796326795,3.14159265359),
.PIECEWISE_BEZIER_KNOTS.) CURVE() GEOMETRIC_REPRESENTATION_ITEM() 
RATIONAL_B_SPLINE_CURVE((1.,0.707106781187,1.)) REPRESENTATION_ITEM('') 
  );
#27 = CARTESIAN_POINT('',(-1.80950424621E-15,29.551446955471,0.));
#28 = CARTESIAN_POINT('',(29.551446955471,29.551446955471,0.));
#29 = CARTESIAN_POINT('',(29.551446955471,3.619008492419E-15,0.));
#30 = ORIENTED_EDGE('',*,*,#31,.T.);
#31 = EDGE_CURVE('',#22,#32,#34,.T.);
#32 = VERTEX_POINT('',#33);
#33 = CARTESIAN_POINT('',(-1.104393003248E-31,1.80950424621E-15,
    29.551446955471));
#34 = B_SPLINE_CURVE_WITH_KNOTS('',7,(#35,#36,#37,#38,#39,#40,#41,#42),
  .UNSPECIFIED.,.F.,.F.,(8,8),(0.,1.570796326795),
  .PIECEWISE_BEZIER_KNOTS.);
#35 = CARTESIAN_POINT('',(-9.041627632441E-15,29.551446955471,
    4.199513193082E-15));
#36 = CARTESIAN_POINT('',(-9.041627632441E-15,29.551446955471,
    6.631329189875));
#37 = CARTESIAN_POINT('',(-8.510442076421E-15,27.815332350847,
    13.262626300787));
#38 = CARTESIAN_POINT('',(-7.448155791639E-15,24.343380389053,
    19.348719490987));
#39 = CARTESIAN_POINT('',(-5.919978032401E-15,19.348719490986,
    24.343380389052));
#40 = CARTESIAN_POINT('',(-4.057863177415E-15,13.262626300787,
    27.815332350847));
#41 = CARTESIAN_POINT('',(-2.028936496184E-15,6.631329189875,
    29.551446955471));
#42 = CARTESIAN_POINT('',(0.,4.199513193082E-15,29.551446955471));
#43 = ORIENTED_EDGE('',*,*,#31,.F.);
#44 = ORIENTED_EDGE('',*,*,#45,.F.);
#45 = EDGE_CURVE('',#46,#22,#48,.T.);
#46 = VERTEX_POINT('',#47);
#47 = CARTESIAN_POINT('',(-29.55144695547,-7.232123386232E-15,0.));
#48 = ( BOUNDED_CURVE() B_SPLINE_CURVE(2,(#49,#50,#51),.UNSPECIFIED.,.F.
,.F.) B_SPLINE_CURVE_WITH_KNOTS((3,3),(0.,1.570796326795),
.PIECEWISE_BEZIER_KNOTS.) CURVE() GEOMETRIC_REPRESENTATION_ITEM() 
RATIONAL_B_SPLINE_CURVE((1.,0.707106781187,1.)) REPRESENTATION_ITEM('') 
  );
#49 = CARTESIAN_POINT('',(-29.55144695547,0.,0.));
#50 = CARTESIAN_POINT('',(-29.55144695547,29.551446955471,0.));
#51 = CARTESIAN_POINT('',(-1.80950424621E-15,29.551446955471,0.));
#52 = ORIENTED_EDGE('',*,*,#53,.T.);
#53 = EDGE_CURVE('',#46,#24,#54,.T.);
#54 = ( BOUNDED_CURVE() B_SPLINE_CURVE(2,(#55,#56,#57,#58,#59),
.UNSPECIFIED.,.F.,.F.) B_SPLINE_CURVE_WITH_KNOTS((3,2,3),(4.712388980385
,6.28318530718,7.853981633974),.PIECEWISE_BEZIER_KNOTS.) CURVE() 
GEOMETRIC_REPRESENTATION_ITEM() RATIONAL_B_SPLINE_CURVE((1.,
0.707106781187,1.,0.707106781187,1.)) REPRESENTATION_ITEM('') );
#55 = CARTESIAN_POINT('',(-29.55144695547,5.428512738629E-15,
    -1.772081108864E-30));
#56 = CARTESIAN_POINT('',(-29.55144695547,-29.55144695547,
    3.619008492419E-15));
#57 = CARTESIAN_POINT('',(-7.238016984838E-15,-29.55144695547,
    3.619008492419E-15));
#58 = CARTESIAN_POINT('',(29.551446955471,-29.55144695547,
    3.619008492419E-15));
#59 = CARTESIAN_POINT('',(29.551446955471,-9.047521231048E-15,
    2.215281825497E-30));
#60 = ( BOUNDED_SURFACE() B_SPLINE_SURFACE(2,2,(
    (#61,#62,#63)
    ,(#64,#65,#66)
    ,(#67,#68,#69)
    ,(#70,#71,#72)
    ,(#73,#74,#75)
    ,(#76,#77,#78)
    ,(#79,#80,#81
)),.UNSPECIFIED.,.T.,.F.,.F.) B_SPLINE_SURFACE_WITH_KNOTS((1,2,2,2,2,1),
  (3,3),(-2.094395102393,0.,2.094395102393,4.188790204786,6.28318530718,
    8.377580409573),(-5.996596753907E-32,1.570796326795),.UNSPECIFIED.) 
GEOMETRIC_REPRESENTATION_ITEM() RATIONAL_B_SPLINE_SURFACE((
    (1.,0.707106781187,1.)
    ,(0.5,0.353553390593,0.5)
    ,(1.,0.707106781187,1.)
    ,(0.5,0.353553390593,0.5)
    ,(1.,0.707106781187,1.)
    ,(0.5,0.353553390593,0.5)
,(1.,0.707106781187,1.))) REPRESENTATION_ITEM('') SURFACE() );
#61 = CARTESIAN_POINT('',(-9.041627632441E-15,29.551446955471,
    -1.772081108864E-30));
#62 = CARTESIAN_POINT('',(-9.041627632441E-15,29.551446955471,
    29.551446955471));
#63 = CARTESIAN_POINT('',(-5.536400169576E-31,1.80950424621E-15,
    29.551446955471));
#64 = CARTESIAN_POINT('',(-51.18460756405,29.551446955471,
    -1.772081108864E-30));
#65 = CARTESIAN_POINT('',(-51.18460756405,29.551446955471,
    29.551446955471));
#66 = CARTESIAN_POINT('',(-3.134153290946E-15,1.80950424621E-15,
    29.551446955471));
#67 = CARTESIAN_POINT('',(-25.59230378202,-14.77572347773,
    -1.772081108864E-30));
#68 = CARTESIAN_POINT('',(-25.59230378202,-14.77572347773,
    29.551446955471));
#69 = CARTESIAN_POINT('',(-1.567076645473E-15,-9.047521231048E-16,
    29.551446955471));
#70 = CARTESIAN_POINT('',(1.084523828004E-14,-59.10289391094,
    -1.772081108864E-30));
#71 = CARTESIAN_POINT('',(1.084523828004E-14,-59.10289391094,
    29.551446955471));
#72 = CARTESIAN_POINT('',(6.640793172823E-31,-3.619008492419E-15,
    29.551446955471));
#73 = CARTESIAN_POINT('',(25.592303782026,-14.77572347773,
    -1.772081108864E-30));
#74 = CARTESIAN_POINT('',(25.592303782026,-14.77572347773,
    29.551446955471));
#75 = CARTESIAN_POINT('',(1.567076645473E-15,-9.047521231048E-16,
    29.551446955471));
#76 = CARTESIAN_POINT('',(51.184607564052,29.551446955471,
    -1.772081108864E-30));
#77 = CARTESIAN_POINT('',(51.184607564052,29.551446955471,
    29.551446955471));
#78 = CARTESIAN_POINT('',(3.134153290947E-15,1.80950424621E-15,
    29.551446955471));
#79 = CARTESIAN_POINT('',(-9.041627632441E-15,29.551446955471,
    -1.772081108864E-30));
#80 = CARTESIAN_POINT('',(-9.041627632441E-15,29.551446955471,
    29.551446955471));
#81 = CARTESIAN_POINT('',(-5.536400169576E-31,1.80950424621E-15,
    29.551446955471));
#82 = ADVANCED_FACE('',(#83),#102,.T.);
#83 = FACE_BOUND('',#84,.T.);
#84 = EDGE_LOOP('',(#85,#86,#87,#100,#101));
#85 = ORIENTED_EDGE('',*,*,#53,.F.);
#86 = ORIENTED_EDGE('',*,*,#45,.T.);
#87 = ORIENTED_EDGE('',*,*,#88,.F.);
#88 = EDGE_CURVE('',#89,#22,#91,.T.);
#89 = VERTEX_POINT('',#90);
#90 = CARTESIAN_POINT('',(-5.536400169576E-31,1.80950424621E-15,
    -29.55144695547));
#91 = B_SPLINE_CURVE_WITH_KNOTS('',7,(#92,#93,#94,#95,#96,#97,#98,#99),
  .UNSPECIFIED.,.F.,.F.,(8,8),(-1.570796326795,0.),
  .PIECEWISE_BEZIER_KNOTS.);
#92 = CARTESIAN_POINT('',(-2.331198119588E-31,0.,-29.55144695547));
#93 = CARTESIAN_POINT('',(-4.04729282889E-16,6.631329189875,
    -29.55144695547));
#94 = CARTESIAN_POINT('',(-8.094566079056E-16,13.262626300787,
    -27.81533235084));
#95 = CARTESIAN_POINT('',(-1.180908553954E-15,19.348719490987,
    -24.34338038905));
#96 = CARTESIAN_POINT('',(-1.485747216862E-15,24.343380389052,
    -19.34871949098));
#97 = CARTESIAN_POINT('',(-1.697650530284E-15,27.815332350847,
    -13.26262630078));
#98 = CARTESIAN_POINT('',(-1.803610647603E-15,29.551446955471,
    -6.631329189875));
#99 = CARTESIAN_POINT('',(-1.803610647603E-15,29.551446955471,0.));
#100 = ORIENTED_EDGE('',*,*,#88,.T.);
#101 = ORIENTED_EDGE('',*,*,#21,.T.);
#102 = ( BOUNDED_SURFACE() B_SPLINE_SURFACE(2,2,(
    (#103,#104,#105)
    ,(#106,#107,#108)
    ,(#109,#110,#111)
    ,(#112,#113,#114)
    ,(#115,#116,#117)
    ,(#118,#119,#120)
    ,(#121,#122,#123
)),.UNSPECIFIED.,.T.,.F.,.F.) B_SPLINE_SURFACE_WITH_KNOTS((1,2,2,2,2,1),
  (3,3),(-2.094395102393,0.,2.094395102393,4.188790204786,6.28318530718,
    8.377580409573),(-1.570796326795,0.),.UNSPECIFIED.) 
GEOMETRIC_REPRESENTATION_ITEM() RATIONAL_B_SPLINE_SURFACE((
    (1.,0.707106781187,1.)
    ,(0.5,0.353553390593,0.5)
    ,(1.,0.707106781187,1.)
    ,(0.5,0.353553390593,0.5)
    ,(1.,0.707106781187,1.)
    ,(0.5,0.353553390593,0.5)
,(1.,0.707106781187,1.))) REPRESENTATION_ITEM('') SURFACE() );
#103 = CARTESIAN_POINT('',(-5.536400169576E-31,1.80950424621E-15,
    -29.55144695547));
#104 = CARTESIAN_POINT('',(-9.041627632441E-15,29.551446955471,
    -29.55144695547));
#105 = CARTESIAN_POINT('',(-9.041627632441E-15,29.551446955471,0.));
#106 = CARTESIAN_POINT('',(-3.134153290946E-15,1.80950424621E-15,
    -29.55144695547));
#107 = CARTESIAN_POINT('',(-51.18460756405,29.551446955471,
    -29.55144695547));
#108 = CARTESIAN_POINT('',(-51.18460756405,29.551446955471,0.));
#109 = CARTESIAN_POINT('',(-1.567076645473E-15,-9.047521231048E-16,
    -29.55144695547));
#110 = CARTESIAN_POINT('',(-25.59230378202,-14.77572347773,
    -29.55144695547));
#111 = CARTESIAN_POINT('',(-25.59230378202,-14.77572347773,0.));
#112 = CARTESIAN_POINT('',(6.640793172823E-31,-3.619008492419E-15,
    -29.55144695547));
#113 = CARTESIAN_POINT('',(1.084523828004E-14,-59.10289391094,
    -29.55144695547));
#114 = CARTESIAN_POINT('',(1.084523828004E-14,-59.10289391094,0.));
#115 = CARTESIAN_POINT('',(1.567076645473E-15,-9.047521231048E-16,
    -29.55144695547));
#116 = CARTESIAN_POINT('',(25.592303782026,-14.77572347773,
    -29.55144695547));
#117 = CARTESIAN_POINT('',(25.592303782026,-14.77572347773,0.));
#118 = CARTESIAN_POINT('',(3.134153290947E-15,1.80950424621E-15,
    -29.55144695547));
#119 = CARTESIAN_POINT('',(51.184607564052,29.551446955471,
    -29.55144695547));
#120 = CARTESIAN_POINT('',(51.184607564052,29.551446955471,0.));
#121 = CARTESIAN_POINT('',(-5.536400169576E-31,1.80950424621E-15,
    -29.55144695547));
#122 = CARTESIAN_POINT('',(-9.041627632441E-15,29.551446955471,
    -29.55144695547));
#123 = CARTESIAN_POINT('',(-9.041627632441E-15,29.551446955471,0.));
#124 = ( GEOMETRIC_REPRESENTATION_CONTEXT(3) 
GLOBAL_UNCERTAINTY_ASSIGNED_CONTEXT((#128)) GLOBAL_UNIT_ASSIGNED_CONTEXT
((#125,#126,#127)) REPRESENTATION_CONTEXT('Context #1',
  '3D Context with UNIT and UNCERTAINTY') );
#125 = ( LENGTH_UNIT() NAMED_UNIT(*) SI_UNIT(.MILLI.,.METRE.) );
#126 = ( NAMED_UNIT(*) PLANE_ANGLE_UNIT() SI_UNIT($,.RADIAN.) );
#127 = ( NAMED_UNIT(*) SI_UNIT($,.STERADIAN.) SOLID_ANGLE_UNIT() );
#128 = UNCERTAINTY_MEASURE_WITH_UNIT(LENGTH_MEASURE(5.E-06),#125,
  'distance_accuracy_value','confusion accuracy');
#129 = PRODUCT_RELATED_PRODUCT_CATEGORY('part',$,(#7));
ENDSEC;
END-ISO-10303-21;
