ISO-10303-21;
HEADER;
FILE_DESCRIPTION(('FreeCAD Model'),'2;1');
FILE_NAME('Open CASCADE Shape Model','2025-05-04T08:52:16',('FreeCAD'),(
    'FreeCAD'),'Open CASCADE STEP processor 7.6','FreeCAD','Unknown');
FILE_SCHEMA(('AUTOMOTIVE_DESIGN { 1 0 10303 214 1 1 1 1 }'));
ENDSEC;
DATA;
#1 = APPLICATION_PROTOCOL_DEFINITION('international standard',
  'automotive_design',2000,#2);
#2 = APPLICATION_CONTEXT(
  'core data for automotive mechanical design processes');
#3 = SHAPE_DEFINITION_REPRESENTATION(#4,#10);
#4 = PRODUCT_DEFINITION_SHAPE('','',#5);
#5 = PRODUCT_DEFINITION('design','',#6,#9);
#6 = PRODUCT_DEFINITION_FORMATION('','',#7);
#7 = PRODUCT('Open CASCADE STEP translator 7.6 1',
  'Open CASCADE STEP translator 7.6 1','',(#8));
#8 = PRODUCT_CONTEXT('',#2,'mechanical');
#9 = PRODUCT_DEFINITION_CONTEXT('part definition',#2,'design');
#10 = ADVANCED_BREP_SHAPE_REPRESENTATION('',(#11,#15),#267);
#11 = AXIS2_PLACEMENT_3D('',#12,#13,#14);
#12 = CARTESIAN_POINT('',(0.,0.,0.));
#13 = DIRECTION('',(0.,0.,1.));
#14 = DIRECTION('',(1.,0.,-0.));
#15 = MANIFOLD_SOLID_BREP('',#16);
#16 = CLOSED_SHELL('',(#17,#65,#113,#150,#182,#203,#228,#249));
#17 = ADVANCED_FACE('',(#18),#54,.F.);
#18 = FACE_BOUND('',#19,.F.);
#19 = EDGE_LOOP('',(#20,#29,#39,#46));
#20 = ORIENTED_EDGE('',*,*,#21,.T.);
#21 = EDGE_CURVE('',#22,#24,#26,.T.);
#22 = VERTEX_POINT('',#23);
#23 = CARTESIAN_POINT('',(0.,2.632655756006,-12.90001320443));
#24 = VERTEX_POINT('',#25);
#25 = CARTESIAN_POINT('',(0.,1.316327878003,-12.90001320443));
#26 = B_SPLINE_CURVE_WITH_KNOTS('',1,(#27,#28),.UNSPECIFIED.,.F.,.F.,(2,
    2),(-2.5,-1.25),.PIECEWISE_BEZIER_KNOTS.);
#27 = CARTESIAN_POINT('',(0.,2.632655756006,-12.90001320443));
#28 = CARTESIAN_POINT('',(0.,1.316327878003,-12.90001320443));
#29 = ORIENTED_EDGE('',*,*,#30,.F.);
#30 = EDGE_CURVE('',#31,#24,#33,.T.);
#31 = VERTEX_POINT('',#32);
#32 = CARTESIAN_POINT('',(1.660397824098E-15,1.316327878003,
    12.900013204432));
#33 = ( BOUNDED_CURVE() B_SPLINE_CURVE(2,(#34,#35,#36,#37,#38),
.UNSPECIFIED.,.F.,.F.) B_SPLINE_CURVE_WITH_KNOTS((3,2,3),(3.14159265359,
4.712388980385,6.28318530718),.PIECEWISE_BEZIER_KNOTS.) CURVE() 
GEOMETRIC_REPRESENTATION_ITEM() RATIONAL_B_SPLINE_CURVE((1.,
0.707106781187,1.,0.707106781187,1.)) REPRESENTATION_ITEM('') );
#34 = CARTESIAN_POINT('',(1.579795987977E-15,1.316327878003,
    12.900013204432));
#35 = CARTESIAN_POINT('',(-12.90001320443,1.316327878003,12.900013204432
    ));
#36 = CARTESIAN_POINT('',(-12.90001320443,1.316327878003,
    2.369693981965E-15));
#37 = CARTESIAN_POINT('',(-12.90001320443,1.316327878003,-12.90001320443
    ));
#38 = CARTESIAN_POINT('',(-3.159591975953E-15,1.316327878003,
    -12.90001320443));
#39 = ORIENTED_EDGE('',*,*,#40,.F.);
#40 = EDGE_CURVE('',#41,#31,#43,.T.);
#41 = VERTEX_POINT('',#42);
#42 = CARTESIAN_POINT('',(1.579795987977E-15,2.632655756006,
    12.900013204432));
#43 = B_SPLINE_CURVE_WITH_KNOTS('',1,(#44,#45),.UNSPECIFIED.,.F.,.F.,(2,
    2),(-2.5,-1.25),.PIECEWISE_BEZIER_KNOTS.);
#44 = CARTESIAN_POINT('',(1.579795987977E-15,2.632655756006,
    12.900013204432));
#45 = CARTESIAN_POINT('',(1.579795987977E-15,1.316327878003,
    12.900013204432));
#46 = ORIENTED_EDGE('',*,*,#47,.T.);
#47 = EDGE_CURVE('',#41,#22,#48,.T.);
#48 = ( BOUNDED_CURVE() B_SPLINE_CURVE(2,(#49,#50,#51,#52,#53),
.UNSPECIFIED.,.F.,.F.) B_SPLINE_CURVE_WITH_KNOTS((3,2,3),(3.14159265359,
4.712388980385,6.28318530718),.PIECEWISE_BEZIER_KNOTS.) CURVE() 
GEOMETRIC_REPRESENTATION_ITEM() RATIONAL_B_SPLINE_CURVE((1.,
0.707106781187,1.,0.707106781187,1.)) REPRESENTATION_ITEM('') );
#49 = CARTESIAN_POINT('',(1.579795987977E-15,2.632655756006,
    12.900013204432));
#50 = CARTESIAN_POINT('',(-12.90001320443,2.632655756006,12.900013204432
    ));
#51 = CARTESIAN_POINT('',(-12.90001320443,2.632655756006,
    2.369693981965E-15));
#52 = CARTESIAN_POINT('',(-12.90001320443,2.632655756006,-12.90001320443
    ));
#53 = CARTESIAN_POINT('',(-3.159591975953E-15,2.632655756006,
    -12.90001320443));
#54 = ( BOUNDED_SURFACE() B_SPLINE_SURFACE(2,1,(
    (#55,#56)
    ,(#57,#58)
    ,(#59,#60)
    ,(#61,#62)
,(#63,#64
    )),.UNSPECIFIED.,.F.,.F.,.F.) B_SPLINE_SURFACE_WITH_KNOTS((3,2,3),(2
    ,2),(3.14159265359,4.712388980385,6.28318530718),(-2.5,-1.25),
.PIECEWISE_BEZIER_KNOTS.) GEOMETRIC_REPRESENTATION_ITEM() 
RATIONAL_B_SPLINE_SURFACE((
    (1.,1.)
    ,(0.707106781187,0.707106781187)
    ,(1.,1.)
    ,(0.707106781187,0.707106781187)
,(1.,1.))) REPRESENTATION_ITEM('') SURFACE() );
#55 = CARTESIAN_POINT('',(1.579795987977E-15,2.632655756006,
    12.900013204432));
#56 = CARTESIAN_POINT('',(1.579795987977E-15,1.316327878003,
    12.900013204432));
#57 = CARTESIAN_POINT('',(-12.90001320443,2.632655756006,12.900013204432
    ));
#58 = CARTESIAN_POINT('',(-12.90001320443,1.316327878003,12.900013204432
    ));
#59 = CARTESIAN_POINT('',(-12.90001320443,2.632655756006,
    2.369693981965E-15));
#60 = CARTESIAN_POINT('',(-12.90001320443,1.316327878003,
    2.369693981965E-15));
#61 = CARTESIAN_POINT('',(-12.90001320443,2.632655756006,-12.90001320443
    ));
#62 = CARTESIAN_POINT('',(-12.90001320443,1.316327878003,-12.90001320443
    ));
#63 = CARTESIAN_POINT('',(-3.159591975953E-15,2.632655756006,
    -12.90001320443));
#64 = CARTESIAN_POINT('',(-3.159591975953E-15,1.316327878003,
    -12.90001320443));
#65 = ADVANCED_FACE('',(#66),#102,.T.);
#66 = FACE_BOUND('',#67,.T.);
#67 = EDGE_LOOP('',(#68,#80,#87,#97));
#68 = ORIENTED_EDGE('',*,*,#69,.T.);
#69 = EDGE_CURVE('',#70,#72,#74,.T.);
#70 = VERTEX_POINT('',#71);
#71 = CARTESIAN_POINT('',(0.,2.632655756006,-14.74287223363));
#72 = VERTEX_POINT('',#73);
#73 = CARTESIAN_POINT('',(1.805481129116E-15,2.632655756006,
    14.742872233636));
#74 = ( BOUNDED_CURVE() B_SPLINE_CURVE(2,(#75,#76,#77,#78,#79),
.UNSPECIFIED.,.F.,.F.) B_SPLINE_CURVE_WITH_KNOTS((3,2,3),(0.,
1.570796326795,3.14159265359),.PIECEWISE_BEZIER_KNOTS.) CURVE() 
GEOMETRIC_REPRESENTATION_ITEM() RATIONAL_B_SPLINE_CURVE((1.,
0.707106781187,1.,0.707106781187,1.)) REPRESENTATION_ITEM('') );
#75 = CARTESIAN_POINT('',(0.,2.632655756006,-14.74287223363));
#76 = CARTESIAN_POINT('',(14.742872233636,2.632655756006,-14.74287223363
    ));
#77 = CARTESIAN_POINT('',(14.742872233636,2.632655756006,
    -9.027405645581E-16));
#78 = CARTESIAN_POINT('',(14.742872233636,2.632655756006,14.742872233636
    ));
#79 = CARTESIAN_POINT('',(1.805481129116E-15,2.632655756006,
    14.742872233636));
#80 = ORIENTED_EDGE('',*,*,#81,.T.);
#81 = EDGE_CURVE('',#72,#82,#84,.T.);
#82 = VERTEX_POINT('',#83);
#83 = CARTESIAN_POINT('',(1.805481129116E-15,0.,14.742872233636));
#84 = B_SPLINE_CURVE_WITH_KNOTS('',1,(#85,#86),.UNSPECIFIED.,.F.,.F.,(2,
    2),(-2.5,-0.),.PIECEWISE_BEZIER_KNOTS.);
#85 = CARTESIAN_POINT('',(1.805481129116E-15,2.632655756006,
    14.742872233636));
#86 = CARTESIAN_POINT('',(1.805481129116E-15,0.,14.742872233636));
#87 = ORIENTED_EDGE('',*,*,#88,.F.);
#88 = EDGE_CURVE('',#89,#82,#91,.T.);
#89 = VERTEX_POINT('',#90);
#90 = CARTESIAN_POINT('',(0.,0.,-14.74287223363));
#91 = ( BOUNDED_CURVE() B_SPLINE_CURVE(2,(#92,#93,#94,#95,#96),
.UNSPECIFIED.,.F.,.F.) B_SPLINE_CURVE_WITH_KNOTS((3,2,3),(0.,
1.570796326795,3.14159265359),.PIECEWISE_BEZIER_KNOTS.) CURVE() 
GEOMETRIC_REPRESENTATION_ITEM() RATIONAL_B_SPLINE_CURVE((1.,
0.707106781187,1.,0.707106781187,1.)) REPRESENTATION_ITEM('') );
#92 = CARTESIAN_POINT('',(0.,0.,-14.74287223363));
#93 = CARTESIAN_POINT('',(14.742872233636,0.,-14.74287223363));
#94 = CARTESIAN_POINT('',(14.742872233636,0.,-9.027405645581E-16));
#95 = CARTESIAN_POINT('',(14.742872233636,0.,14.742872233636));
#96 = CARTESIAN_POINT('',(1.805481129116E-15,0.,14.742872233636));
#97 = ORIENTED_EDGE('',*,*,#98,.F.);
#98 = EDGE_CURVE('',#70,#89,#99,.T.);
#99 = B_SPLINE_CURVE_WITH_KNOTS('',1,(#100,#101),.UNSPECIFIED.,.F.,.F.,(
    2,2),(-2.5,-0.),.PIECEWISE_BEZIER_KNOTS.);
#100 = CARTESIAN_POINT('',(0.,2.632655756006,-14.74287223363));
#101 = CARTESIAN_POINT('',(0.,0.,-14.74287223363));
#102 = ( BOUNDED_SURFACE() B_SPLINE_SURFACE(2,1,(
    (#103,#104)
    ,(#105,#106)
    ,(#107,#108)
    ,(#109,#110)
,(#111,#112
    )),.UNSPECIFIED.,.F.,.F.,.F.) B_SPLINE_SURFACE_WITH_KNOTS((3,2,3),(2
    ,2),(0.,1.570796326795,3.14159265359),(-2.5,0.),
.PIECEWISE_BEZIER_KNOTS.) GEOMETRIC_REPRESENTATION_ITEM() 
RATIONAL_B_SPLINE_SURFACE((
    (1.,1.)
    ,(0.707106781187,0.707106781187)
    ,(1.,1.)
    ,(0.707106781187,0.707106781187)
,(1.,1.))) REPRESENTATION_ITEM('') SURFACE() );
#103 = CARTESIAN_POINT('',(0.,2.632655756006,-14.74287223363));
#104 = CARTESIAN_POINT('',(0.,0.,-14.74287223363));
#105 = CARTESIAN_POINT('',(14.742872233636,2.632655756006,
    -14.74287223363));
#106 = CARTESIAN_POINT('',(14.742872233636,0.,-14.74287223363));
#107 = CARTESIAN_POINT('',(14.742872233636,2.632655756006,
    -9.027405645581E-16));
#108 = CARTESIAN_POINT('',(14.742872233636,0.,-9.027405645581E-16));
#109 = CARTESIAN_POINT('',(14.742872233636,2.632655756006,
    14.742872233636));
#110 = CARTESIAN_POINT('',(14.742872233636,0.,14.742872233636));
#111 = CARTESIAN_POINT('',(1.805481129116E-15,2.632655756006,
    14.742872233636));
#112 = CARTESIAN_POINT('',(1.805481129116E-15,0.,14.742872233636));
#113 = ADVANCED_FACE('',(#114),#139,.F.);
#114 = FACE_BOUND('',#115,.F.);
#115 = EDGE_LOOP('',(#116,#123,#133,#138));
#116 = ORIENTED_EDGE('',*,*,#117,.T.);
#117 = EDGE_CURVE('',#24,#118,#120,.T.);
#118 = VERTEX_POINT('',#119);
#119 = CARTESIAN_POINT('',(0.,0.,-14.21634108243));
#120 = B_SPLINE_CURVE_WITH_KNOTS('',1,(#121,#122),.UNSPECIFIED.,.F.,.F.,
  (2,2),(0.,1.767766952966),.PIECEWISE_BEZIER_KNOTS.);
#121 = CARTESIAN_POINT('',(0.,1.316327878003,-12.90001320443));
#122 = CARTESIAN_POINT('',(0.,-4.676536057969E-16,-14.21634108243));
#123 = ORIENTED_EDGE('',*,*,#124,.F.);
#124 = EDGE_CURVE('',#125,#118,#127,.T.);
#125 = VERTEX_POINT('',#126);
#126 = CARTESIAN_POINT('',(1.740999660219E-15,0.,14.216341082435));
#127 = ( BOUNDED_CURVE() B_SPLINE_CURVE(2,(#128,#129,#130,#131,#132),
.UNSPECIFIED.,.F.,.F.) B_SPLINE_CURVE_WITH_KNOTS((3,2,3),(3.14159265359,
4.712388980385,6.28318530718),.PIECEWISE_BEZIER_KNOTS.) CURVE() 
GEOMETRIC_REPRESENTATION_ITEM() RATIONAL_B_SPLINE_CURVE((1.,
0.707106781187,1.,0.707106781187,1.)) REPRESENTATION_ITEM('') );
#128 = CARTESIAN_POINT('',(1.740999660219E-15,0.,14.216341082435));
#129 = CARTESIAN_POINT('',(-14.21634108243,0.,14.216341082435));
#130 = CARTESIAN_POINT('',(-14.21634108243,0.,2.611499490329E-15));
#131 = CARTESIAN_POINT('',(-14.21634108243,0.,-14.21634108243));
#132 = CARTESIAN_POINT('',(-3.481999320438E-15,0.,-14.21634108243));
#133 = ORIENTED_EDGE('',*,*,#134,.F.);
#134 = EDGE_CURVE('',#31,#125,#135,.T.);
#135 = B_SPLINE_CURVE_WITH_KNOTS('',1,(#136,#137),.UNSPECIFIED.,.F.,.F.,
  (2,2),(6.628064452944E-33,1.767766952966),.PIECEWISE_BEZIER_KNOTS.);
#136 = CARTESIAN_POINT('',(1.579795987977E-15,1.316327878003,
    12.900013204432));
#137 = CARTESIAN_POINT('',(1.740999660219E-15,-4.676536057969E-16,
    14.216341082435));
#138 = ORIENTED_EDGE('',*,*,#30,.T.);
#139 = ( BOUNDED_SURFACE() B_SPLINE_SURFACE(2,1,(
    (#140,#141)
    ,(#142,#143)
    ,(#144,#145)
    ,(#146,#147)
,(#148,#149
    )),.UNSPECIFIED.,.F.,.F.,.F.) B_SPLINE_SURFACE_WITH_KNOTS((3,2,3),(2
    ,2),(3.14159265359,4.712388980385,6.28318530718),(0.,1.767766952966)
,.PIECEWISE_BEZIER_KNOTS.) GEOMETRIC_REPRESENTATION_ITEM() 
RATIONAL_B_SPLINE_SURFACE((
    (1.,1.)
    ,(0.707106781187,0.707106781187)
    ,(1.,1.)
    ,(0.707106781187,0.707106781187)
,(1.,1.))) REPRESENTATION_ITEM('') SURFACE() );
#140 = CARTESIAN_POINT('',(1.579795987977E-15,1.316327878003,
    12.900013204432));
#141 = CARTESIAN_POINT('',(1.740999660219E-15,-2.338268028984E-16,
    14.216341082435));
#142 = CARTESIAN_POINT('',(-12.90001320443,1.316327878003,
    12.900013204432));
#143 = CARTESIAN_POINT('',(-14.21634108243,-2.338268028984E-16,
    14.216341082435));
#144 = CARTESIAN_POINT('',(-12.90001320443,1.316327878003,
    2.369693981965E-15));
#145 = CARTESIAN_POINT('',(-14.21634108243,-2.338268028984E-16,
    2.611499490329E-15));
#146 = CARTESIAN_POINT('',(-12.90001320443,1.316327878003,
    -12.90001320443));
#147 = CARTESIAN_POINT('',(-14.21634108243,-2.338268028984E-16,
    -14.21634108243));
#148 = CARTESIAN_POINT('',(-3.159591975953E-15,1.316327878003,
    -12.90001320443));
#149 = CARTESIAN_POINT('',(-3.481999320438E-15,-2.338268028984E-16,
    -14.21634108243));
#150 = ADVANCED_FACE('',(#151),#171,.F.);
#151 = FACE_BOUND('',#152,.F.);
#152 = EDGE_LOOP('',(#153,#161,#162,#170));
#153 = ORIENTED_EDGE('',*,*,#154,.F.);
#154 = EDGE_CURVE('',#118,#125,#155,.T.);
#155 = ( BOUNDED_CURVE() B_SPLINE_CURVE(2,(#156,#157,#158,#159,#160),
.UNSPECIFIED.,.F.,.F.) B_SPLINE_CURVE_WITH_KNOTS((3,2,3),(0.,
1.570796326795,3.14159265359),.PIECEWISE_BEZIER_KNOTS.) CURVE() 
GEOMETRIC_REPRESENTATION_ITEM() RATIONAL_B_SPLINE_CURVE((1.,
0.707106781187,1.,0.707106781187,1.)) REPRESENTATION_ITEM('') );
#156 = CARTESIAN_POINT('',(0.,0.,-14.21634108243));
#157 = CARTESIAN_POINT('',(14.216341082435,0.,-14.21634108243));
#158 = CARTESIAN_POINT('',(14.216341082435,0.,-8.704998301096E-16));
#159 = CARTESIAN_POINT('',(14.216341082435,0.,14.216341082435));
#160 = CARTESIAN_POINT('',(1.740999660219E-15,0.,14.216341082435));
#161 = ORIENTED_EDGE('',*,*,#117,.F.);
#162 = ORIENTED_EDGE('',*,*,#163,.T.);
#163 = EDGE_CURVE('',#24,#31,#164,.T.);
#164 = ( BOUNDED_CURVE() B_SPLINE_CURVE(2,(#165,#166,#167,#168,#169),
.UNSPECIFIED.,.F.,.F.) B_SPLINE_CURVE_WITH_KNOTS((3,2,3),(0.,
1.570796326795,3.14159265359),.PIECEWISE_BEZIER_KNOTS.) CURVE() 
GEOMETRIC_REPRESENTATION_ITEM() RATIONAL_B_SPLINE_CURVE((1.,
0.707106781187,1.,0.707106781187,1.)) REPRESENTATION_ITEM('') );
#165 = CARTESIAN_POINT('',(0.,1.316327878003,-12.90001320443));
#166 = CARTESIAN_POINT('',(12.900013204432,1.316327878003,
    -12.90001320443));
#167 = CARTESIAN_POINT('',(12.900013204432,1.316327878003,
    -7.898979939883E-16));
#168 = CARTESIAN_POINT('',(12.900013204432,1.316327878003,
    12.900013204432));
#169 = CARTESIAN_POINT('',(1.579795987977E-15,1.316327878003,
    12.900013204432));
#170 = ORIENTED_EDGE('',*,*,#134,.T.);
#171 = ( BOUNDED_SURFACE() B_SPLINE_SURFACE(2,1,(
    (#172,#173)
    ,(#174,#175)
    ,(#176,#177)
    ,(#178,#179)
,(#180,#181
    )),.UNSPECIFIED.,.F.,.F.,.F.) B_SPLINE_SURFACE_WITH_KNOTS((3,2,3),(2
    ,2),(0.,1.570796326795,3.14159265359),(0.,1.767766952966),
.PIECEWISE_BEZIER_KNOTS.) GEOMETRIC_REPRESENTATION_ITEM() 
RATIONAL_B_SPLINE_SURFACE((
    (1.,1.)
    ,(0.707106781187,0.707106781187)
    ,(1.,1.)
    ,(0.707106781187,0.707106781187)
,(1.,1.))) REPRESENTATION_ITEM('') SURFACE() );
#172 = CARTESIAN_POINT('',(0.,1.316327878003,-12.90001320443));
#173 = CARTESIAN_POINT('',(0.,-2.338268028984E-16,-14.21634108243));
#174 = CARTESIAN_POINT('',(12.900013204432,1.316327878003,
    -12.90001320443));
#175 = CARTESIAN_POINT('',(14.216341082435,-2.338268028984E-16,
    -14.21634108243));
#176 = CARTESIAN_POINT('',(12.900013204432,1.316327878003,
    -7.898979939883E-16));
#177 = CARTESIAN_POINT('',(14.216341082435,-2.338268028984E-16,
    -8.704998301096E-16));
#178 = CARTESIAN_POINT('',(12.900013204432,1.316327878003,
    12.900013204432));
#179 = CARTESIAN_POINT('',(14.216341082435,-2.338268028984E-16,
    14.216341082435));
#180 = CARTESIAN_POINT('',(1.579795987977E-15,1.316327878003,
    12.900013204432));
#181 = CARTESIAN_POINT('',(1.740999660219E-15,-2.338268028984E-16,
    14.216341082435));
#182 = ADVANCED_FACE('',(#183,#194),#198,.T.);
#183 = FACE_BOUND('',#184,.T.);
#184 = EDGE_LOOP('',(#185,#186));
#185 = ORIENTED_EDGE('',*,*,#88,.T.);
#186 = ORIENTED_EDGE('',*,*,#187,.T.);
#187 = EDGE_CURVE('',#82,#89,#188,.T.);
#188 = ( BOUNDED_CURVE() B_SPLINE_CURVE(2,(#189,#190,#191,#192,#193),
.UNSPECIFIED.,.F.,.F.) B_SPLINE_CURVE_WITH_KNOTS((3,2,3),(3.14159265359,
4.712388980385,6.28318530718),.PIECEWISE_BEZIER_KNOTS.) CURVE() 
GEOMETRIC_REPRESENTATION_ITEM() RATIONAL_B_SPLINE_CURVE((1.,
0.707106781187,1.,0.707106781187,1.)) REPRESENTATION_ITEM('') );
#189 = CARTESIAN_POINT('',(1.805481129116E-15,0.,14.742872233636));
#190 = CARTESIAN_POINT('',(-14.74287223363,0.,14.742872233636));
#191 = CARTESIAN_POINT('',(-14.74287223363,0.,2.708221693674E-15));
#192 = CARTESIAN_POINT('',(-14.74287223363,0.,-14.74287223363));
#193 = CARTESIAN_POINT('',(-3.610962258232E-15,0.,-14.74287223363));
#194 = FACE_BOUND('',#195,.T.);
#195 = EDGE_LOOP('',(#196,#197));
#196 = ORIENTED_EDGE('',*,*,#154,.F.);
#197 = ORIENTED_EDGE('',*,*,#124,.F.);
#198 = B_SPLINE_SURFACE_WITH_KNOTS('',1,1,(
    (#199,#200)
    ,(#201,#202
    )),.UNSPECIFIED.,.F.,.F.,.F.,(2,2),(2,2),(-27.5,0.5),(-14.,14.),
  .PIECEWISE_BEZIER_KNOTS.);
#199 = CARTESIAN_POINT('',(-14.74287223363,0.,14.742872233636));
#200 = CARTESIAN_POINT('',(14.742872233636,0.,14.742872233636));
#201 = CARTESIAN_POINT('',(-14.74287223363,0.,-14.74287223363));
#202 = CARTESIAN_POINT('',(14.742872233636,0.,-14.74287223363));
#203 = ADVANCED_FACE('',(#204),#217,.T.);
#204 = FACE_BOUND('',#205,.T.);
#205 = EDGE_LOOP('',(#206,#207,#215,#216));
#206 = ORIENTED_EDGE('',*,*,#81,.F.);
#207 = ORIENTED_EDGE('',*,*,#208,.T.);
#208 = EDGE_CURVE('',#72,#70,#209,.T.);
#209 = ( BOUNDED_CURVE() B_SPLINE_CURVE(2,(#210,#211,#212,#213,#214),
.UNSPECIFIED.,.F.,.F.) B_SPLINE_CURVE_WITH_KNOTS((3,2,3),(3.14159265359,
4.712388980385,6.28318530718),.PIECEWISE_BEZIER_KNOTS.) CURVE() 
GEOMETRIC_REPRESENTATION_ITEM() RATIONAL_B_SPLINE_CURVE((1.,
0.707106781187,1.,0.707106781187,1.)) REPRESENTATION_ITEM('') );
#210 = CARTESIAN_POINT('',(1.805481129116E-15,2.632655756006,
    14.742872233636));
#211 = CARTESIAN_POINT('',(-14.74287223363,2.632655756006,
    14.742872233636));
#212 = CARTESIAN_POINT('',(-14.74287223363,2.632655756006,
    2.708221693674E-15));
#213 = CARTESIAN_POINT('',(-14.74287223363,2.632655756006,
    -14.74287223363));
#214 = CARTESIAN_POINT('',(-3.610962258232E-15,2.632655756006,
    -14.74287223363));
#215 = ORIENTED_EDGE('',*,*,#98,.T.);
#216 = ORIENTED_EDGE('',*,*,#187,.F.);
#217 = ( BOUNDED_SURFACE() B_SPLINE_SURFACE(2,1,(
    (#218,#219)
    ,(#220,#221)
    ,(#222,#223)
    ,(#224,#225)
,(#226,#227
    )),.UNSPECIFIED.,.F.,.F.,.F.) B_SPLINE_SURFACE_WITH_KNOTS((3,2,3),(2
    ,2),(3.14159265359,4.712388980385,6.28318530718),(-2.5,0.),
.PIECEWISE_BEZIER_KNOTS.) GEOMETRIC_REPRESENTATION_ITEM() 
RATIONAL_B_SPLINE_SURFACE((
    (1.,1.)
    ,(0.707106781187,0.707106781187)
    ,(1.,1.)
    ,(0.707106781187,0.707106781187)
,(1.,1.))) REPRESENTATION_ITEM('') SURFACE() );
#218 = CARTESIAN_POINT('',(1.805481129116E-15,2.632655756006,
    14.742872233636));
#219 = CARTESIAN_POINT('',(1.805481129116E-15,0.,14.742872233636));
#220 = CARTESIAN_POINT('',(-14.74287223363,2.632655756006,
    14.742872233636));
#221 = CARTESIAN_POINT('',(-14.74287223363,0.,14.742872233636));
#222 = CARTESIAN_POINT('',(-14.74287223363,2.632655756006,
    2.708221693674E-15));
#223 = CARTESIAN_POINT('',(-14.74287223363,0.,2.708221693674E-15));
#224 = CARTESIAN_POINT('',(-14.74287223363,2.632655756006,
    -14.74287223363));
#225 = CARTESIAN_POINT('',(-14.74287223363,0.,-14.74287223363));
#226 = CARTESIAN_POINT('',(-3.610962258232E-15,2.632655756006,
    -14.74287223363));
#227 = CARTESIAN_POINT('',(-3.610962258232E-15,0.,-14.74287223363));
#228 = ADVANCED_FACE('',(#229,#240),#244,.T.);
#229 = FACE_BOUND('',#230,.T.);
#230 = EDGE_LOOP('',(#231,#239));
#231 = ORIENTED_EDGE('',*,*,#232,.T.);
#232 = EDGE_CURVE('',#22,#41,#233,.T.);
#233 = ( BOUNDED_CURVE() B_SPLINE_CURVE(2,(#234,#235,#236,#237,#238),
.UNSPECIFIED.,.F.,.F.) B_SPLINE_CURVE_WITH_KNOTS((3,2,3),(0.,
1.570796326795,3.14159265359),.PIECEWISE_BEZIER_KNOTS.) CURVE() 
GEOMETRIC_REPRESENTATION_ITEM() RATIONAL_B_SPLINE_CURVE((1.,
0.707106781187,1.,0.707106781187,1.)) REPRESENTATION_ITEM('') );
#234 = CARTESIAN_POINT('',(0.,2.632655756006,-12.90001320443));
#235 = CARTESIAN_POINT('',(12.900013204432,2.632655756006,
    -12.90001320443));
#236 = CARTESIAN_POINT('',(12.900013204432,2.632655756006,
    -7.898979939883E-16));
#237 = CARTESIAN_POINT('',(12.900013204432,2.632655756006,
    12.900013204432));
#238 = CARTESIAN_POINT('',(1.579795987977E-15,2.632655756006,
    12.900013204432));
#239 = ORIENTED_EDGE('',*,*,#47,.T.);
#240 = FACE_BOUND('',#241,.T.);
#241 = EDGE_LOOP('',(#242,#243));
#242 = ORIENTED_EDGE('',*,*,#69,.F.);
#243 = ORIENTED_EDGE('',*,*,#208,.F.);
#244 = B_SPLINE_SURFACE_WITH_KNOTS('',1,1,(
    (#245,#246)
    ,(#247,#248
    )),.UNSPECIFIED.,.F.,.F.,.F.,(2,2),(2,2),(0.,28.),(-14.,14.),
  .PIECEWISE_BEZIER_KNOTS.);
#245 = CARTESIAN_POINT('',(-14.74287223363,2.632655756006,
    -14.74287223363));
#246 = CARTESIAN_POINT('',(14.742872233636,2.632655756006,
    -14.74287223363));
#247 = CARTESIAN_POINT('',(-14.74287223363,2.632655756006,
    14.742872233636));
#248 = CARTESIAN_POINT('',(14.742872233636,2.632655756006,
    14.742872233636));
#249 = ADVANCED_FACE('',(#250),#256,.F.);
#250 = FACE_BOUND('',#251,.F.);
#251 = EDGE_LOOP('',(#252,#253,#254,#255));
#252 = ORIENTED_EDGE('',*,*,#163,.F.);
#253 = ORIENTED_EDGE('',*,*,#21,.F.);
#254 = ORIENTED_EDGE('',*,*,#232,.T.);
#255 = ORIENTED_EDGE('',*,*,#40,.T.);
#256 = ( BOUNDED_SURFACE() B_SPLINE_SURFACE(2,1,(
    (#257,#258)
    ,(#259,#260)
    ,(#261,#262)
    ,(#263,#264)
,(#265,#266
    )),.UNSPECIFIED.,.F.,.F.,.F.) B_SPLINE_SURFACE_WITH_KNOTS((3,2,3),(2
    ,2),(0.,1.570796326795,3.14159265359),(-2.5,-1.25),
.PIECEWISE_BEZIER_KNOTS.) GEOMETRIC_REPRESENTATION_ITEM() 
RATIONAL_B_SPLINE_SURFACE((
    (1.,1.)
    ,(0.707106781187,0.707106781187)
    ,(1.,1.)
    ,(0.707106781187,0.707106781187)
,(1.,1.))) REPRESENTATION_ITEM('') SURFACE() );
#257 = CARTESIAN_POINT('',(0.,2.632655756006,-12.90001320443));
#258 = CARTESIAN_POINT('',(0.,1.316327878003,-12.90001320443));
#259 = CARTESIAN_POINT('',(12.900013204432,2.632655756006,
    -12.90001320443));
#260 = CARTESIAN_POINT('',(12.900013204432,1.316327878003,
    -12.90001320443));
#261 = CARTESIAN_POINT('',(12.900013204432,2.632655756006,
    -7.898979939883E-16));
#262 = CARTESIAN_POINT('',(12.900013204432,1.316327878003,
    -7.898979939883E-16));
#263 = CARTESIAN_POINT('',(12.900013204432,2.632655756006,
    12.900013204432));
#264 = CARTESIAN_POINT('',(12.900013204432,1.316327878003,
    12.900013204432));
#265 = CARTESIAN_POINT('',(1.579795987977E-15,2.632655756006,
    12.900013204432));
#266 = CARTESIAN_POINT('',(1.579795987977E-15,1.316327878003,
    12.900013204432));
#267 = ( GEOMETRIC_REPRESENTATION_CONTEXT(3) 
GLOBAL_UNCERTAINTY_ASSIGNED_CONTEXT((#271)) GLOBAL_UNIT_ASSIGNED_CONTEXT
((#268,#269,#270)) REPRESENTATION_CONTEXT('Context #1',
  '3D Context with UNIT and UNCERTAINTY') );
#268 = ( LENGTH_UNIT() NAMED_UNIT(*) SI_UNIT(.MILLI.,.METRE.) );
#269 = ( NAMED_UNIT(*) PLANE_ANGLE_UNIT() SI_UNIT($,.RADIAN.) );
#270 = ( NAMED_UNIT(*) SI_UNIT($,.STERADIAN.) SOLID_ANGLE_UNIT() );
#271 = UNCERTAINTY_MEASURE_WITH_UNIT(LENGTH_MEASURE(1.E-07),#268,
  'distance_accuracy_value','confusion accuracy');
#272 = PRODUCT_RELATED_PRODUCT_CATEGORY('part',$,(#7));
ENDSEC;
END-ISO-10303-21;
