ISO-10303-21;
HEADER;
FILE_DESCRIPTION(('FreeCAD Model'),'2;1');
FILE_NAME('Open CASCADE Shape Model','2025-05-04T06:47:33',('FreeCAD'),(
    'FreeCAD'),'Open CASCADE STEP processor 7.6','FreeCAD','Unknown');
FILE_SCHEMA(('AUTOMOTIVE_DESIGN { 1 0 10303 214 1 1 1 1 }'));
ENDSEC;
DATA;
#1 = APPLICATION_PROTOCOL_DEFINITION('international standard',
  'automotive_design',2000,#2);
#2 = APPLICATION_CONTEXT(
  'core data for automotive mechanical design processes');
#3 = SHAPE_DEFINITION_REPRESENTATION(#4,#10);
#4 = PRODUCT_DEFINITION_SHAPE('','',#5);
#5 = PRODUCT_DEFINITION('design','',#6,#9);
#6 = PRODUCT_DEFINITION_FORMATION('','',#7);
#7 = PRODUCT('Open CASCADE STEP translator 7.6 1',
  'Open CASCADE STEP translator 7.6 1','',(#8));
#8 = PRODUCT_CONTEXT('',#2,'mechanical');
#9 = PRODUCT_DEFINITION_CONTEXT('part definition',#2,'design');
#10 = ADVANCED_BREP_SHAPE_REPRESENTATION('',(#11,#15),#205);
#11 = AXIS2_PLACEMENT_3D('',#12,#13,#14);
#12 = CARTESIAN_POINT('',(0.,0.,0.));
#13 = DIRECTION('',(0.,0.,1.));
#14 = DIRECTION('',(1.,0.,-0.));
#15 = MANIFOLD_SOLID_BREP('',#16);
#16 = CLOSED_SHELL('',(#17,#65,#104,#129,#161,#187));
#17 = ADVANCED_FACE('',(#18),#54,.F.);
#18 = FACE_BOUND('',#19,.F.);
#19 = EDGE_LOOP('',(#20,#29,#39,#46));
#20 = ORIENTED_EDGE('',*,*,#21,.T.);
#21 = EDGE_CURVE('',#22,#24,#26,.T.);
#22 = VERTEX_POINT('',#23);
#23 = CARTESIAN_POINT('',(11.174801107038,-1.266225406908E-14,
    -26.07453591642));
#24 = VERTEX_POINT('',#25);
#25 = CARTESIAN_POINT('',(11.174801107038,0.,26.074535916421));
#26 = B_SPLINE_CURVE_WITH_KNOTS('',1,(#27,#28),.UNSPECIFIED.,.F.,.F.,(2,
    2),(0.,35.),.PIECEWISE_BEZIER_KNOTS.);
#27 = CARTESIAN_POINT('',(11.174801107038,-1.266225406908E-14,
    -26.07453591642));
#28 = CARTESIAN_POINT('',(11.174801107038,-1.266225406908E-14,
    26.074535916421));
#29 = ORIENTED_EDGE('',*,*,#30,.F.);
#30 = EDGE_CURVE('',#31,#24,#33,.T.);
#31 = VERTEX_POINT('',#32);
#32 = CARTESIAN_POINT('',(-11.17480110703,6.331127034546E-15,
    26.074535916421));
#33 = ( BOUNDED_CURVE() B_SPLINE_CURVE(2,(#34,#35,#36,#37,#38),
.UNSPECIFIED.,.F.,.F.) B_SPLINE_CURVE_WITH_KNOTS((3,2,3),(3.14159265359,
4.712388980385,6.28318530718),.PIECEWISE_BEZIER_KNOTS.) CURVE() 
GEOMETRIC_REPRESENTATION_ITEM() RATIONAL_B_SPLINE_CURVE((1.,
0.707106781187,1.,0.707106781187,1.)) REPRESENTATION_ITEM('') );
#34 = CARTESIAN_POINT('',(-11.17480110703,1.368518440684E-15,
    26.074535916421));
#35 = CARTESIAN_POINT('',(-11.17480110703,-11.17480110703,
    26.074535916421));
#36 = CARTESIAN_POINT('',(-2.052777661026E-15,-11.17480110703,
    26.074535916421));
#37 = CARTESIAN_POINT('',(11.174801107038,-11.17480110703,
    26.074535916421));
#38 = CARTESIAN_POINT('',(11.174801107038,-2.737036881368E-15,
    26.074535916421));
#39 = ORIENTED_EDGE('',*,*,#40,.F.);
#40 = EDGE_CURVE('',#41,#31,#43,.T.);
#41 = VERTEX_POINT('',#42);
#42 = CARTESIAN_POINT('',(-11.17480110703,6.331127034546E-15,
    -26.07453591642));
#43 = B_SPLINE_CURVE_WITH_KNOTS('',1,(#44,#45),.UNSPECIFIED.,.F.,.F.,(2,
    2),(0.,35.),.PIECEWISE_BEZIER_KNOTS.);
#44 = CARTESIAN_POINT('',(-11.17480110703,6.331127034546E-15,
    -26.07453591642));
#45 = CARTESIAN_POINT('',(-11.17480110703,6.331127034546E-15,
    26.074535916421));
#46 = ORIENTED_EDGE('',*,*,#47,.T.);
#47 = EDGE_CURVE('',#41,#22,#48,.T.);
#48 = ( BOUNDED_CURVE() B_SPLINE_CURVE(2,(#49,#50,#51,#52,#53),
.UNSPECIFIED.,.F.,.F.) B_SPLINE_CURVE_WITH_KNOTS((3,2,3),(3.14159265359,
4.712388980385,6.28318530718),.PIECEWISE_BEZIER_KNOTS.) CURVE() 
GEOMETRIC_REPRESENTATION_ITEM() RATIONAL_B_SPLINE_CURVE((1.,
0.707106781187,1.,0.707106781187,1.)) REPRESENTATION_ITEM('') );
#49 = CARTESIAN_POINT('',(-11.17480110703,1.368518440684E-15,
    -26.07453591642));
#50 = CARTESIAN_POINT('',(-11.17480110703,-11.17480110703,
    -26.07453591642));
#51 = CARTESIAN_POINT('',(-2.052777661026E-15,-11.17480110703,
    -26.07453591642));
#52 = CARTESIAN_POINT('',(11.174801107038,-11.17480110703,
    -26.07453591642));
#53 = CARTESIAN_POINT('',(11.174801107038,-2.737036881368E-15,
    -26.07453591642));
#54 = ( BOUNDED_SURFACE() B_SPLINE_SURFACE(2,1,(
    (#55,#56)
    ,(#57,#58)
    ,(#59,#60)
    ,(#61,#62)
,(#63,#64
    )),.UNSPECIFIED.,.F.,.F.,.F.) B_SPLINE_SURFACE_WITH_KNOTS((3,2,3),(2
    ,2),(3.14159265359,4.712388980385,6.28318530718),(0.,35.),
.PIECEWISE_BEZIER_KNOTS.) GEOMETRIC_REPRESENTATION_ITEM() 
RATIONAL_B_SPLINE_SURFACE((
    (1.,1.)
    ,(0.707106781187,0.707106781187)
    ,(1.,1.)
    ,(0.707106781187,0.707106781187)
,(1.,1.))) REPRESENTATION_ITEM('') SURFACE() );
#55 = CARTESIAN_POINT('',(-11.17480110703,6.33112703454E-15,
    -26.07453591642));
#56 = CARTESIAN_POINT('',(-11.17480110703,6.33112703454E-15,
    26.074535916421));
#57 = CARTESIAN_POINT('',(-11.17480110703,-11.17480110703,
    -26.07453591642));
#58 = CARTESIAN_POINT('',(-11.17480110703,-11.17480110703,
    26.074535916421));
#59 = CARTESIAN_POINT('',(-2.052777661026E-15,-11.17480110703,
    -26.07453591642));
#60 = CARTESIAN_POINT('',(-2.052777661026E-15,-11.17480110703,
    26.074535916421));
#61 = CARTESIAN_POINT('',(11.174801107038,-11.17480110703,
    -26.07453591642));
#62 = CARTESIAN_POINT('',(11.174801107038,-11.17480110703,
    26.074535916421));
#63 = CARTESIAN_POINT('',(11.174801107038,-2.737036881368E-15,
    -26.07453591642));
#64 = CARTESIAN_POINT('',(11.174801107038,-2.737036881368E-15,
    26.074535916421));
#65 = ADVANCED_FACE('',(#66,#88),#99,.F.);
#66 = FACE_BOUND('',#67,.T.);
#67 = EDGE_LOOP('',(#68,#80));
#68 = ORIENTED_EDGE('',*,*,#69,.F.);
#69 = EDGE_CURVE('',#70,#72,#74,.T.);
#70 = VERTEX_POINT('',#71);
#71 = CARTESIAN_POINT('',(-26.81952265689,0.,-26.07453591642));
#72 = VERTEX_POINT('',#73);
#73 = CARTESIAN_POINT('',(26.81952265689,3.284444257649E-15,
    -26.07453591642));
#74 = ( BOUNDED_CURVE() B_SPLINE_CURVE(2,(#75,#76,#77,#78,#79),
.UNSPECIFIED.,.F.,.F.) B_SPLINE_CURVE_WITH_KNOTS((3,2,3),(3.14159265359,
4.712388980385,6.28318530718),.PIECEWISE_BEZIER_KNOTS.) CURVE() 
GEOMETRIC_REPRESENTATION_ITEM() RATIONAL_B_SPLINE_CURVE((1.,
0.707106781187,1.,0.707106781187,1.)) REPRESENTATION_ITEM('') );
#75 = CARTESIAN_POINT('',(-26.81952265689,5.931168841032E-15,
    -26.07453591642));
#76 = CARTESIAN_POINT('',(-26.81952265689,-26.81952265689,
    -26.07453591642));
#77 = CARTESIAN_POINT('',(-2.279941803074E-15,-26.81952265689,
    -26.07453591642));
#78 = CARTESIAN_POINT('',(26.81952265689,-26.81952265689,-26.07453591642
    ));
#79 = CARTESIAN_POINT('',(26.81952265689,-3.922163931895E-15,
    -26.07453591642));
#80 = ORIENTED_EDGE('',*,*,#81,.F.);
#81 = EDGE_CURVE('',#72,#70,#82,.T.);
#82 = ( BOUNDED_CURVE() B_SPLINE_CURVE(2,(#83,#84,#85,#86,#87),
.UNSPECIFIED.,.F.,.F.) B_SPLINE_CURVE_WITH_KNOTS((3,2,3),(0.,
1.570796326795,3.14159265359),.PIECEWISE_BEZIER_KNOTS.) CURVE() 
GEOMETRIC_REPRESENTATION_ITEM() RATIONAL_B_SPLINE_CURVE((1.,
0.707106781187,1.,0.707106781187,1.)) REPRESENTATION_ITEM('') );
#83 = CARTESIAN_POINT('',(26.81952265689,-2.646724583389E-15,
    -26.07453591642));
#84 = CARTESIAN_POINT('',(26.81952265689,26.81952265689,-26.07453591642)
  );
#85 = CARTESIAN_POINT('',(-1.004502454568E-15,26.81952265689,
    -26.07453591642));
#86 = CARTESIAN_POINT('',(-26.81952265689,26.81952265689,-26.07453591642
    ));
#87 = CARTESIAN_POINT('',(-26.81952265689,6.377196742526E-16,
    -26.07453591642));
#88 = FACE_BOUND('',#89,.T.);
#89 = EDGE_LOOP('',(#90,#98));
#90 = ORIENTED_EDGE('',*,*,#91,.T.);
#91 = EDGE_CURVE('',#22,#41,#92,.T.);
#92 = ( BOUNDED_CURVE() B_SPLINE_CURVE(2,(#93,#94,#95,#96,#97),
.UNSPECIFIED.,.F.,.F.) B_SPLINE_CURVE_WITH_KNOTS((3,2,3),(0.,
1.570796326795,3.14159265359),.PIECEWISE_BEZIER_KNOTS.) CURVE() 
GEOMETRIC_REPRESENTATION_ITEM() RATIONAL_B_SPLINE_CURVE((1.,
0.707106781187,1.,0.707106781187,1.)) REPRESENTATION_ITEM('') );
#93 = CARTESIAN_POINT('',(11.174801107038,1.985043437542E-15,
    -26.07453591642));
#94 = CARTESIAN_POINT('',(11.174801107038,11.174801107038,
    -26.07453591642));
#95 = CARTESIAN_POINT('',(2.669302657884E-15,11.174801107038,
    -26.07453591642));
#96 = CARTESIAN_POINT('',(-11.17480110703,11.174801107038,
    -26.07453591642));
#97 = CARTESIAN_POINT('',(-11.17480110703,3.353561878226E-15,
    -26.07453591642));
#98 = ORIENTED_EDGE('',*,*,#47,.T.);
#99 = B_SPLINE_SURFACE_WITH_KNOTS('',1,1,(
    (#100,#101)
    ,(#102,#103
    )),.UNSPECIFIED.,.F.,.F.,.F.,(2,2),(2,2),(-18.,18.),(-18.,18.),
  .PIECEWISE_BEZIER_KNOTS.);
#100 = CARTESIAN_POINT('',(-26.81952265689,-26.81952265689,
    -26.07453591642));
#101 = CARTESIAN_POINT('',(-26.81952265689,26.81952265689,
    -26.07453591642));
#102 = CARTESIAN_POINT('',(26.81952265689,-26.81952265689,
    -26.07453591642));
#103 = CARTESIAN_POINT('',(26.81952265689,26.81952265689,-26.07453591642
    ));
#104 = ADVANCED_FACE('',(#105),#118,.F.);
#105 = FACE_BOUND('',#106,.F.);
#106 = EDGE_LOOP('',(#107,#115,#116,#117));
#107 = ORIENTED_EDGE('',*,*,#108,.F.);
#108 = EDGE_CURVE('',#24,#31,#109,.T.);
#109 = ( BOUNDED_CURVE() B_SPLINE_CURVE(2,(#110,#111,#112,#113,#114),
.UNSPECIFIED.,.F.,.F.) B_SPLINE_CURVE_WITH_KNOTS((3,2,3),(0.,
1.570796326795,3.14159265359),.PIECEWISE_BEZIER_KNOTS.) CURVE() 
GEOMETRIC_REPRESENTATION_ITEM() RATIONAL_B_SPLINE_CURVE((1.,
0.707106781187,1.,0.707106781187,1.)) REPRESENTATION_ITEM('') );
#110 = CARTESIAN_POINT('',(11.174801107038,0.,26.074535916421));
#111 = CARTESIAN_POINT('',(11.174801107038,11.174801107038,
    26.074535916421));
#112 = CARTESIAN_POINT('',(6.842592203421E-16,11.174801107038,
    26.074535916421));
#113 = CARTESIAN_POINT('',(-11.17480110703,11.174801107038,
    26.074535916421));
#114 = CARTESIAN_POINT('',(-11.17480110703,1.368518440684E-15,
    26.074535916421));
#115 = ORIENTED_EDGE('',*,*,#21,.F.);
#116 = ORIENTED_EDGE('',*,*,#91,.T.);
#117 = ORIENTED_EDGE('',*,*,#40,.T.);
#118 = ( BOUNDED_SURFACE() B_SPLINE_SURFACE(2,1,(
    (#119,#120)
    ,(#121,#122)
    ,(#123,#124)
    ,(#125,#126)
,(#127,#128
    )),.UNSPECIFIED.,.F.,.F.,.F.) B_SPLINE_SURFACE_WITH_KNOTS((3,2,3),(2
    ,2),(0.,1.570796326795,3.14159265359),(0.,35.),
.PIECEWISE_BEZIER_KNOTS.) GEOMETRIC_REPRESENTATION_ITEM() 
RATIONAL_B_SPLINE_SURFACE((
    (1.,1.)
    ,(0.707106781187,0.707106781187)
    ,(1.,1.)
    ,(0.707106781187,0.707106781187)
,(1.,1.))) REPRESENTATION_ITEM('') SURFACE() );
#119 = CARTESIAN_POINT('',(11.174801107038,0.,-26.07453591642));
#120 = CARTESIAN_POINT('',(11.174801107038,0.,26.074535916421));
#121 = CARTESIAN_POINT('',(11.174801107038,11.174801107038,
    -26.07453591642));
#122 = CARTESIAN_POINT('',(11.174801107038,11.174801107038,
    26.074535916421));
#123 = CARTESIAN_POINT('',(6.842592203421E-16,11.174801107038,
    -26.07453591642));
#124 = CARTESIAN_POINT('',(6.842592203421E-16,11.174801107038,
    26.074535916421));
#125 = CARTESIAN_POINT('',(-11.17480110703,11.174801107038,
    -26.07453591642));
#126 = CARTESIAN_POINT('',(-11.17480110703,11.174801107038,
    26.074535916421));
#127 = CARTESIAN_POINT('',(-11.17480110703,1.368518440684E-15,
    -26.07453591642));
#128 = CARTESIAN_POINT('',(-11.17480110703,1.368518440684E-15,
    26.074535916421));
#129 = ADVANCED_FACE('',(#130,#152),#156,.T.);
#130 = FACE_BOUND('',#131,.T.);
#131 = EDGE_LOOP('',(#132,#144));
#132 = ORIENTED_EDGE('',*,*,#133,.T.);
#133 = EDGE_CURVE('',#134,#136,#138,.T.);
#134 = VERTEX_POINT('',#135);
#135 = CARTESIAN_POINT('',(-26.81952265689,0.,26.074535916421));
#136 = VERTEX_POINT('',#137);
#137 = CARTESIAN_POINT('',(26.81952265689,3.284444257649E-15,
    26.074535916421));
#138 = ( BOUNDED_CURVE() B_SPLINE_CURVE(2,(#139,#140,#141,#142,#143),
.UNSPECIFIED.,.F.,.F.) B_SPLINE_CURVE_WITH_KNOTS((3,2,3),(3.14159265359,
4.712388980385,6.28318530718),.PIECEWISE_BEZIER_KNOTS.) CURVE() 
GEOMETRIC_REPRESENTATION_ITEM() RATIONAL_B_SPLINE_CURVE((1.,
0.707106781187,1.,0.707106781187,1.)) REPRESENTATION_ITEM('') );
#139 = CARTESIAN_POINT('',(-26.81952265689,5.931168841032E-15,
    26.074535916421));
#140 = CARTESIAN_POINT('',(-26.81952265689,-26.81952265689,
    26.074535916421));
#141 = CARTESIAN_POINT('',(-2.279941803074E-15,-26.81952265689,
    26.074535916421));
#142 = CARTESIAN_POINT('',(26.81952265689,-26.81952265689,
    26.074535916421));
#143 = CARTESIAN_POINT('',(26.81952265689,-3.922163931895E-15,
    26.074535916421));
#144 = ORIENTED_EDGE('',*,*,#145,.T.);
#145 = EDGE_CURVE('',#136,#134,#146,.T.);
#146 = ( BOUNDED_CURVE() B_SPLINE_CURVE(2,(#147,#148,#149,#150,#151),
.UNSPECIFIED.,.F.,.F.) B_SPLINE_CURVE_WITH_KNOTS((3,2,3),(0.,
1.570796326795,3.14159265359),.PIECEWISE_BEZIER_KNOTS.) CURVE() 
GEOMETRIC_REPRESENTATION_ITEM() RATIONAL_B_SPLINE_CURVE((1.,
0.707106781187,1.,0.707106781187,1.)) REPRESENTATION_ITEM('') );
#147 = CARTESIAN_POINT('',(26.81952265689,-2.646724583389E-15,
    26.074535916421));
#148 = CARTESIAN_POINT('',(26.81952265689,26.81952265689,26.074535916421
    ));
#149 = CARTESIAN_POINT('',(-1.004502454568E-15,26.81952265689,
    26.074535916421));
#150 = CARTESIAN_POINT('',(-26.81952265689,26.81952265689,
    26.074535916421));
#151 = CARTESIAN_POINT('',(-26.81952265689,6.377196742526E-16,
    26.074535916421));
#152 = FACE_BOUND('',#153,.T.);
#153 = EDGE_LOOP('',(#154,#155));
#154 = ORIENTED_EDGE('',*,*,#108,.F.);
#155 = ORIENTED_EDGE('',*,*,#30,.F.);
#156 = B_SPLINE_SURFACE_WITH_KNOTS('',1,1,(
    (#157,#158)
    ,(#159,#160
    )),.UNSPECIFIED.,.F.,.F.,.F.,(2,2),(2,2),(-18.,18.),(-18.,18.),
  .PIECEWISE_BEZIER_KNOTS.);
#157 = CARTESIAN_POINT('',(-26.81952265689,-26.81952265689,
    26.074535916421));
#158 = CARTESIAN_POINT('',(-26.81952265689,26.81952265689,
    26.074535916421));
#159 = CARTESIAN_POINT('',(26.81952265689,-26.81952265689,
    26.074535916421));
#160 = CARTESIAN_POINT('',(26.81952265689,26.81952265689,26.074535916421
    ));
#161 = ADVANCED_FACE('',(#162),#176,.T.);
#162 = FACE_BOUND('',#163,.T.);
#163 = EDGE_LOOP('',(#164,#169,#170,#175));
#164 = ORIENTED_EDGE('',*,*,#165,.F.);
#165 = EDGE_CURVE('',#136,#72,#166,.T.);
#166 = B_SPLINE_CURVE_WITH_KNOTS('',1,(#167,#168),.UNSPECIFIED.,.F.,.F.,
  (2,2),(0.,35.),.PIECEWISE_BEZIER_KNOTS.);
#167 = CARTESIAN_POINT('',(26.81952265689,3.284444257649E-15,
    26.074535916421));
#168 = CARTESIAN_POINT('',(26.81952265689,3.284444257649E-15,
    -26.07453591642));
#169 = ORIENTED_EDGE('',*,*,#133,.F.);
#170 = ORIENTED_EDGE('',*,*,#171,.T.);
#171 = EDGE_CURVE('',#134,#70,#172,.T.);
#172 = B_SPLINE_CURVE_WITH_KNOTS('',1,(#173,#174),.UNSPECIFIED.,.F.,.F.,
  (2,2),(0.,35.),.PIECEWISE_BEZIER_KNOTS.);
#173 = CARTESIAN_POINT('',(-26.81952265689,-6.568888515283E-15,
    26.074535916421));
#174 = CARTESIAN_POINT('',(-26.81952265689,-6.568888515283E-15,
    -26.07453591642));
#175 = ORIENTED_EDGE('',*,*,#69,.T.);
#176 = ( BOUNDED_SURFACE() B_SPLINE_SURFACE(2,1,(
    (#177,#178)
    ,(#179,#180)
    ,(#181,#182)
    ,(#183,#184)
,(#185,#186
    )),.UNSPECIFIED.,.F.,.F.,.F.) B_SPLINE_SURFACE_WITH_KNOTS((3,2,3),(2
    ,2),(3.14159265359,4.712388980385,6.28318530718),(0.,35.),
.PIECEWISE_BEZIER_KNOTS.) GEOMETRIC_REPRESENTATION_ITEM() 
RATIONAL_B_SPLINE_SURFACE((
    (1.,1.)
    ,(0.707106781187,0.707106781187)
    ,(1.,1.)
    ,(0.707106781187,0.707106781187)
,(1.,1.))) REPRESENTATION_ITEM('') SURFACE() );
#177 = CARTESIAN_POINT('',(26.81952265689,1.38713425912E-14,
    26.074535916421));
#178 = CARTESIAN_POINT('',(26.81952265689,1.38713425912E-14,
    -26.07453591642));
#179 = CARTESIAN_POINT('',(26.81952265689,-26.81952265689,
    26.074535916421));
#180 = CARTESIAN_POINT('',(26.81952265689,-26.81952265689,
    -26.07453591642));
#181 = CARTESIAN_POINT('',(1.551356472002E-14,-26.81952265689,
    26.074535916421));
#182 = CARTESIAN_POINT('',(1.551356472002E-14,-26.81952265689,
    -26.07453591642));
#183 = CARTESIAN_POINT('',(-26.81952265689,-26.81952265689,
    26.074535916421));
#184 = CARTESIAN_POINT('',(-26.81952265689,-26.81952265689,
    -26.07453591642));
#185 = CARTESIAN_POINT('',(-26.81952265689,-1.715578684884E-14,
    26.074535916421));
#186 = CARTESIAN_POINT('',(-26.81952265689,-1.715578684884E-14,
    -26.07453591642));
#187 = ADVANCED_FACE('',(#188),#194,.T.);
#188 = FACE_BOUND('',#189,.T.);
#189 = EDGE_LOOP('',(#190,#191,#192,#193));
#190 = ORIENTED_EDGE('',*,*,#145,.F.);
#191 = ORIENTED_EDGE('',*,*,#165,.T.);
#192 = ORIENTED_EDGE('',*,*,#81,.T.);
#193 = ORIENTED_EDGE('',*,*,#171,.F.);
#194 = ( BOUNDED_SURFACE() B_SPLINE_SURFACE(2,1,(
    (#195,#196)
    ,(#197,#198)
    ,(#199,#200)
    ,(#201,#202)
,(#203,#204
    )),.UNSPECIFIED.,.F.,.F.,.F.) B_SPLINE_SURFACE_WITH_KNOTS((3,2,3),(2
    ,2),(0.,1.570796326795,3.14159265359),(0.,35.),
.PIECEWISE_BEZIER_KNOTS.) GEOMETRIC_REPRESENTATION_ITEM() 
RATIONAL_B_SPLINE_SURFACE((
    (1.,1.)
    ,(0.707106781187,0.707106781187)
    ,(1.,1.)
    ,(0.707106781187,0.707106781187)
,(1.,1.))) REPRESENTATION_ITEM('') SURFACE() );
#195 = CARTESIAN_POINT('',(-26.81952265689,-1.058689833355E-14,
    26.074535916421));
#196 = CARTESIAN_POINT('',(-26.81952265689,-1.058689833355E-14,
    -26.07453591642));
#197 = CARTESIAN_POINT('',(-26.81952265689,26.81952265689,
    26.074535916421));
#198 = CARTESIAN_POINT('',(-26.81952265689,26.81952265689,
    -26.07453591642));
#199 = CARTESIAN_POINT('',(-6.273990149749E-15,26.81952265689,
    26.074535916421));
#200 = CARTESIAN_POINT('',(-6.273990149749E-15,26.81952265689,
    -26.07453591642));
#201 = CARTESIAN_POINT('',(26.81952265689,26.81952265689,26.074535916421
    ));
#202 = CARTESIAN_POINT('',(26.81952265689,26.81952265689,-26.07453591642
    ));
#203 = CARTESIAN_POINT('',(26.81952265689,1.961081965943E-15,
    26.074535916421));
#204 = CARTESIAN_POINT('',(26.81952265689,1.961081965943E-15,
    -26.07453591642));
#205 = ( GEOMETRIC_REPRESENTATION_CONTEXT(3) 
GLOBAL_UNCERTAINTY_ASSIGNED_CONTEXT((#209)) GLOBAL_UNIT_ASSIGNED_CONTEXT
((#206,#207,#208)) REPRESENTATION_CONTEXT('Context #1',
  '3D Context with UNIT and UNCERTAINTY') );
#206 = ( LENGTH_UNIT() NAMED_UNIT(*) SI_UNIT(.MILLI.,.METRE.) );
#207 = ( NAMED_UNIT(*) PLANE_ANGLE_UNIT() SI_UNIT($,.RADIAN.) );
#208 = ( NAMED_UNIT(*) SI_UNIT($,.STERADIAN.) SOLID_ANGLE_UNIT() );
#209 = UNCERTAINTY_MEASURE_WITH_UNIT(LENGTH_MEASURE(2.E-07),#206,
  'distance_accuracy_value','confusion accuracy');
#210 = PRODUCT_RELATED_PRODUCT_CATEGORY('part',$,(#7));
ENDSEC;
END-ISO-10303-21;
