ISO-10303-21;
HEADER;
FILE_DESCRIPTION(('FreeCAD Model'),'2;1');
FILE_NAME('Open CASCADE Shape Model','2025-05-04T06:46:56',('FreeCAD'),(
    'FreeCAD'),'Open CASCADE STEP processor 7.6','FreeCAD','Unknown');
FILE_SCHEMA(('AUTOMOTIVE_DESIGN { 1 0 10303 214 1 1 1 1 }'));
ENDSEC;
DATA;
#1 = APPLICATION_PROTOCOL_DEFINITION('international standard',
  'automotive_design',2000,#2);
#2 = APPLICATION_CONTEXT(
  'core data for automotive mechanical design processes');
#3 = SHAPE_DEFINITION_REPRESENTATION(#4,#10);
#4 = PRODUCT_DEFINITION_SHAPE('','',#5);
#5 = PRODUCT_DEFINITION('design','',#6,#9);
#6 = PRODUCT_DEFINITION_FORMATION('','',#7);
#7 = PRODUCT('Open CASCADE STEP translator 7.6 1',
  'Open CASCADE STEP translator 7.6 1','',(#8));
#8 = PRODUCT_CONTEXT('',#2,'mechanical');
#9 = PRODUCT_DEFINITION_CONTEXT('part definition',#2,'design');
#10 = ADVANCED_BREP_SHAPE_REPRESENTATION('',(#11,#15),#301);
#11 = AXIS2_PLACEMENT_3D('',#12,#13,#14);
#12 = CARTESIAN_POINT('',(0.,0.,0.));
#13 = DIRECTION('',(0.,0.,1.));
#14 = DIRECTION('',(1.,0.,-0.));
#15 = MANIFOLD_SOLID_BREP('',#16);
#16 = CLOSED_SHELL('',(#17,#53,#81,#109,#137,#165,#185,#233,#265,#283));
#17 = ADVANCED_FACE('',(#18),#48,.T.);
#18 = FACE_BOUND('',#19,.T.);
#19 = EDGE_LOOP('',(#20,#29,#36,#43));
#20 = ORIENTED_EDGE('',*,*,#21,.F.);
#21 = EDGE_CURVE('',#22,#24,#26,.T.);
#22 = VERTEX_POINT('',#23);
#23 = CARTESIAN_POINT('',(528.96213963873,0.,83.404985657547));
#24 = VERTEX_POINT('',#25);
#25 = CARTESIAN_POINT('',(528.96213963873,38.954050903168,
    83.404985657547));
#26 = B_SPLINE_CURVE_WITH_KNOTS('',1,(#27,#28),.UNSPECIFIED.,.F.,.F.,(2,
    2),(-15.,15.),.PIECEWISE_BEZIER_KNOTS.);
#27 = CARTESIAN_POINT('',(528.96213963873,0.,83.404985657547));
#28 = CARTESIAN_POINT('',(528.96213963873,38.954050903168,
    83.404985657547));
#29 = ORIENTED_EDGE('',*,*,#30,.T.);
#30 = EDGE_CURVE('',#22,#31,#33,.T.);
#31 = VERTEX_POINT('',#32);
#32 = CARTESIAN_POINT('',(487.19364045716,0.,124.26551869491));
#33 = B_SPLINE_CURVE_WITH_KNOTS('',1,(#34,#35),.UNSPECIFIED.,.F.,.F.,(2,
    2),(-22.50000000004,22.499999999978),.PIECEWISE_BEZIER_KNOTS.);
#34 = CARTESIAN_POINT('',(528.96213963878,0.,83.40498565759));
#35 = CARTESIAN_POINT('',(487.19364045719,0.,124.26551869493));
#36 = ORIENTED_EDGE('',*,*,#37,.T.);
#37 = EDGE_CURVE('',#31,#38,#40,.T.);
#38 = VERTEX_POINT('',#39);
#39 = CARTESIAN_POINT('',(487.19364045716,38.954050903168,
    124.26551869491));
#40 = B_SPLINE_CURVE_WITH_KNOTS('',1,(#41,#42),.UNSPECIFIED.,.F.,.F.,(2,
    2),(-15.,15.),.PIECEWISE_BEZIER_KNOTS.);
#41 = CARTESIAN_POINT('',(487.19364045716,0.,124.26551869491));
#42 = CARTESIAN_POINT('',(487.19364045716,38.954050903168,
    124.26551869491));
#43 = ORIENTED_EDGE('',*,*,#44,.F.);
#44 = EDGE_CURVE('',#24,#38,#45,.T.);
#45 = B_SPLINE_CURVE_WITH_KNOTS('',1,(#46,#47),.UNSPECIFIED.,.F.,.F.,(2,
    2),(-22.50000000004,22.499999999978),.PIECEWISE_BEZIER_KNOTS.);
#46 = CARTESIAN_POINT('',(528.96213963878,38.954050903168,83.40498565759
    ));
#47 = CARTESIAN_POINT('',(487.19364045719,38.954050903168,
    124.26551869493));
#48 = B_SPLINE_SURFACE_WITH_KNOTS('',1,1,(
    (#49,#50)
    ,(#51,#52
    )),.UNSPECIFIED.,.F.,.F.,.F.,(2,2),(2,2),(-1.06581410364E-14,
    45.000000000025),(0.,30.),.PIECEWISE_BEZIER_KNOTS.);
#49 = CARTESIAN_POINT('',(528.96213963873,0.,83.404985657547));
#50 = CARTESIAN_POINT('',(528.96213963873,38.954050903168,
    83.404985657547));
#51 = CARTESIAN_POINT('',(487.19364045714,0.,124.26551869489));
#52 = CARTESIAN_POINT('',(487.19364045714,38.954050903168,
    124.26551869489));
#53 = ADVANCED_FACE('',(#54),#76,.T.);
#54 = FACE_BOUND('',#55,.T.);
#55 = EDGE_LOOP('',(#56,#57,#64,#71));
#56 = ORIENTED_EDGE('',*,*,#37,.F.);
#57 = ORIENTED_EDGE('',*,*,#58,.T.);
#58 = EDGE_CURVE('',#31,#59,#61,.T.);
#59 = VERTEX_POINT('',#60);
#60 = CARTESIAN_POINT('',(501.69565048834,0.,180.8683665832));
#61 = B_SPLINE_CURVE_WITH_KNOTS('',1,(#62,#63),.UNSPECIFIED.,.F.,.F.,(2,
    2),(-22.50000000014,22.500000000086),.PIECEWISE_BEZIER_KNOTS.);
#62 = CARTESIAN_POINT('',(487.19364045749,0.,124.26551869483));
#63 = CARTESIAN_POINT('',(501.69565048929,0.,180.86836658296));
#64 = ORIENTED_EDGE('',*,*,#65,.T.);
#65 = EDGE_CURVE('',#59,#66,#68,.T.);
#66 = VERTEX_POINT('',#67);
#67 = CARTESIAN_POINT('',(501.69565048834,38.954050903168,180.8683665832
    ));
#68 = B_SPLINE_CURVE_WITH_KNOTS('',1,(#69,#70),.UNSPECIFIED.,.F.,.F.,(2,
    2),(-15.,15.),.PIECEWISE_BEZIER_KNOTS.);
#69 = CARTESIAN_POINT('',(501.69565048834,0.,180.8683665832));
#70 = CARTESIAN_POINT('',(501.69565048834,38.954050903168,180.8683665832
    ));
#71 = ORIENTED_EDGE('',*,*,#72,.F.);
#72 = EDGE_CURVE('',#38,#66,#73,.T.);
#73 = B_SPLINE_CURVE_WITH_KNOTS('',1,(#74,#75),.UNSPECIFIED.,.F.,.F.,(2,
    2),(-22.50000000014,22.500000000086),.PIECEWISE_BEZIER_KNOTS.);
#74 = CARTESIAN_POINT('',(487.19364045749,38.954050903168,
    124.26551869483));
#75 = CARTESIAN_POINT('',(501.69565048929,38.954050903168,
    180.86836658296));
#76 = B_SPLINE_SURFACE_WITH_KNOTS('',1,1,(
    (#77,#78)
    ,(#79,#80
    )),.UNSPECIFIED.,.F.,.F.,.F.,(2,2),(2,2),(-7.105427357601E-15,
    45.000000000227),(0.,30.),.PIECEWISE_BEZIER_KNOTS.);
#77 = CARTESIAN_POINT('',(487.19364045716,0.,124.26551869491));
#78 = CARTESIAN_POINT('',(487.19364045716,38.954050903168,
    124.26551869491));
#79 = CARTESIAN_POINT('',(501.69565048896,0.,180.86836658304));
#80 = CARTESIAN_POINT('',(501.69565048896,38.954050903168,
    180.86836658304));
#81 = ADVANCED_FACE('',(#82),#104,.T.);
#82 = FACE_BOUND('',#83,.T.);
#83 = EDGE_LOOP('',(#84,#85,#92,#99));
#84 = ORIENTED_EDGE('',*,*,#65,.F.);
#85 = ORIENTED_EDGE('',*,*,#86,.T.);
#86 = EDGE_CURVE('',#59,#87,#89,.T.);
#87 = VERTEX_POINT('',#88);
#88 = CARTESIAN_POINT('',(557.9661597024,0.,196.61068143269));
#89 = B_SPLINE_CURVE_WITH_KNOTS('',1,(#90,#91),.UNSPECIFIED.,.F.,.F.,(2,
    2),(-22.50000000031,22.500000000044),.PIECEWISE_BEZIER_KNOTS.);
#90 = CARTESIAN_POINT('',(501.69565048833,0.,180.86836658324));
#91 = CARTESIAN_POINT('',(557.96615970207,0.,196.61068143386));
#92 = ORIENTED_EDGE('',*,*,#93,.T.);
#93 = EDGE_CURVE('',#87,#94,#96,.T.);
#94 = VERTEX_POINT('',#95);
#95 = CARTESIAN_POINT('',(557.9661597024,38.954050903168,196.61068143269
    ));
#96 = B_SPLINE_CURVE_WITH_KNOTS('',1,(#97,#98),.UNSPECIFIED.,.F.,.F.,(2,
    2),(-15.,15.),.PIECEWISE_BEZIER_KNOTS.);
#97 = CARTESIAN_POINT('',(557.9661597024,0.,196.61068143269));
#98 = CARTESIAN_POINT('',(557.9661597024,38.954050903168,196.61068143269
    ));
#99 = ORIENTED_EDGE('',*,*,#100,.F.);
#100 = EDGE_CURVE('',#66,#94,#101,.T.);
#101 = B_SPLINE_CURVE_WITH_KNOTS('',1,(#102,#103),.UNSPECIFIED.,.F.,.F.,
  (2,2),(-22.50000000031,22.500000000044),.PIECEWISE_BEZIER_KNOTS.);
#102 = CARTESIAN_POINT('',(501.69565048833,38.954050903168,
    180.86836658324));
#103 = CARTESIAN_POINT('',(557.96615970207,38.954050903168,
    196.61068143386));
#104 = B_SPLINE_SURFACE_WITH_KNOTS('',1,1,(
    (#105,#106)
    ,(#107,#108
    )),.UNSPECIFIED.,.F.,.F.,.F.,(2,2),(2,2),(0.,45.000000000358),(0.,
    30.),.PIECEWISE_BEZIER_KNOTS.);
#105 = CARTESIAN_POINT('',(501.69565048834,0.,180.8683665832));
#106 = CARTESIAN_POINT('',(501.69565048834,38.954050903168,
    180.8683665832));
#107 = CARTESIAN_POINT('',(557.96615970208,0.,196.61068143383));
#108 = CARTESIAN_POINT('',(557.96615970208,38.954050903168,
    196.61068143383));
#109 = ADVANCED_FACE('',(#110),#132,.T.);
#110 = FACE_BOUND('',#111,.T.);
#111 = EDGE_LOOP('',(#112,#113,#120,#127));
#112 = ORIENTED_EDGE('',*,*,#93,.F.);
#113 = ORIENTED_EDGE('',*,*,#114,.T.);
#114 = EDGE_CURVE('',#87,#115,#117,.T.);
#115 = VERTEX_POINT('',#116);
#116 = CARTESIAN_POINT('',(599.73465888397,0.,155.75014839623));
#117 = B_SPLINE_CURVE_WITH_KNOTS('',1,(#118,#119),.UNSPECIFIED.,.F.,.F.,
  (2,2),(-22.49999999941,22.500000000117),.PIECEWISE_BEZIER_KNOTS.);
#118 = CARTESIAN_POINT('',(557.96615970294,0.,196.61068143325));
#119 = CARTESIAN_POINT('',(599.73465888407,0.,155.75014839634));
#120 = ORIENTED_EDGE('',*,*,#121,.T.);
#121 = EDGE_CURVE('',#115,#122,#124,.T.);
#122 = VERTEX_POINT('',#123);
#123 = CARTESIAN_POINT('',(599.73465888397,38.954050903168,
    155.75014839623));
#124 = B_SPLINE_CURVE_WITH_KNOTS('',1,(#125,#126),.UNSPECIFIED.,.F.,.F.,
  (2,2),(-15.,15.),.PIECEWISE_BEZIER_KNOTS.);
#125 = CARTESIAN_POINT('',(599.73465888397,0.,155.75014839623));
#126 = CARTESIAN_POINT('',(599.73465888397,38.954050903168,
    155.75014839623));
#127 = ORIENTED_EDGE('',*,*,#128,.F.);
#128 = EDGE_CURVE('',#94,#122,#129,.T.);
#129 = B_SPLINE_CURVE_WITH_KNOTS('',1,(#130,#131),.UNSPECIFIED.,.F.,.F.,
  (2,2),(-22.49999999941,22.500000000117),.PIECEWISE_BEZIER_KNOTS.);
#130 = CARTESIAN_POINT('',(557.96615970294,38.954050903168,
    196.61068143325));
#131 = CARTESIAN_POINT('',(599.73465888407,38.954050903168,
    155.75014839634));
#132 = B_SPLINE_SURFACE_WITH_KNOTS('',1,1,(
    (#133,#134)
    ,(#135,#136
    )),.UNSPECIFIED.,.F.,.F.,.F.,(2,2),(2,2),(-2.84217094304E-14,
    44.999999999536),(0.,30.),.PIECEWISE_BEZIER_KNOTS.);
#133 = CARTESIAN_POINT('',(557.9661597024,0.,196.61068143269));
#134 = CARTESIAN_POINT('',(557.9661597024,38.954050903168,
    196.61068143269));
#135 = CARTESIAN_POINT('',(599.73465888353,0.,155.75014839579));
#136 = CARTESIAN_POINT('',(599.73465888353,38.954050903168,
    155.75014839579));
#137 = ADVANCED_FACE('',(#138),#160,.T.);
#138 = FACE_BOUND('',#139,.T.);
#139 = EDGE_LOOP('',(#140,#141,#148,#155));
#140 = ORIENTED_EDGE('',*,*,#121,.F.);
#141 = ORIENTED_EDGE('',*,*,#142,.T.);
#142 = EDGE_CURVE('',#115,#143,#145,.T.);
#143 = VERTEX_POINT('',#144);
#144 = CARTESIAN_POINT('',(585.23264885149,0.,99.147300508079));
#145 = B_SPLINE_CURVE_WITH_KNOTS('',1,(#146,#147),.UNSPECIFIED.,.F.,.F.,
  (2,2),(-22.50000000033,22.500000000044),.PIECEWISE_BEZIER_KNOTS.);
#146 = CARTESIAN_POINT('',(599.7346588837,0.,155.7501483963));
#147 = CARTESIAN_POINT('',(585.23264885185,0.,99.147300507986));
#148 = ORIENTED_EDGE('',*,*,#149,.T.);
#149 = EDGE_CURVE('',#143,#150,#152,.T.);
#150 = VERTEX_POINT('',#151);
#151 = CARTESIAN_POINT('',(585.23264885149,38.954050903168,
    99.147300508079));
#152 = B_SPLINE_CURVE_WITH_KNOTS('',1,(#153,#154),.UNSPECIFIED.,.F.,.F.,
  (2,2),(-15.,15.),.PIECEWISE_BEZIER_KNOTS.);
#153 = CARTESIAN_POINT('',(585.23264885149,0.,99.147300508079));
#154 = CARTESIAN_POINT('',(585.23264885149,38.954050903168,
    99.147300508079));
#155 = ORIENTED_EDGE('',*,*,#156,.F.);
#156 = EDGE_CURVE('',#122,#150,#157,.T.);
#157 = B_SPLINE_CURVE_WITH_KNOTS('',1,(#158,#159),.UNSPECIFIED.,.F.,.F.,
  (2,2),(-22.50000000033,22.500000000044),.PIECEWISE_BEZIER_KNOTS.);
#158 = CARTESIAN_POINT('',(599.7346588837,38.954050903168,155.7501483963
    ));
#159 = CARTESIAN_POINT('',(585.23264885185,38.954050903168,
    99.147300507986));
#160 = B_SPLINE_SURFACE_WITH_KNOTS('',1,1,(
    (#161,#162)
    ,(#163,#164
    )),.UNSPECIFIED.,.F.,.F.,.F.,(2,2),(2,2),(-1.06581410364E-14,
    45.000000000378),(0.,30.),.PIECEWISE_BEZIER_KNOTS.);
#161 = CARTESIAN_POINT('',(599.73465888397,0.,155.75014839623));
#162 = CARTESIAN_POINT('',(599.73465888397,38.954050903168,
    155.75014839623));
#163 = CARTESIAN_POINT('',(585.23264885212,0.,99.147300507917));
#164 = CARTESIAN_POINT('',(585.23264885212,38.954050903168,
    99.147300507917));
#165 = ADVANCED_FACE('',(#166),#180,.T.);
#166 = FACE_BOUND('',#167,.T.);
#167 = EDGE_LOOP('',(#168,#169,#174,#175));
#168 = ORIENTED_EDGE('',*,*,#149,.F.);
#169 = ORIENTED_EDGE('',*,*,#170,.T.);
#170 = EDGE_CURVE('',#143,#22,#171,.T.);
#171 = B_SPLINE_CURVE_WITH_KNOTS('',1,(#172,#173),.UNSPECIFIED.,.F.,.F.,
  (2,2),(-22.49999999932,22.500000000287),.PIECEWISE_BEZIER_KNOTS.);
#172 = CARTESIAN_POINT('',(585.23264885156,0.,99.147300507826));
#173 = CARTESIAN_POINT('',(528.96213963876,0.,83.404985657462));
#174 = ORIENTED_EDGE('',*,*,#21,.T.);
#175 = ORIENTED_EDGE('',*,*,#176,.F.);
#176 = EDGE_CURVE('',#150,#24,#177,.T.);
#177 = B_SPLINE_CURVE_WITH_KNOTS('',1,(#178,#179),.UNSPECIFIED.,.F.,.F.,
  (2,2),(-22.49999999932,22.500000000287),.PIECEWISE_BEZIER_KNOTS.);
#178 = CARTESIAN_POINT('',(585.23264885156,38.954050903168,
    99.147300507826));
#179 = CARTESIAN_POINT('',(528.96213963876,38.954050903168,
    83.404985657462));
#180 = B_SPLINE_SURFACE_WITH_KNOTS('',1,1,(
    (#181,#182)
    ,(#183,#184
    )),.UNSPECIFIED.,.F.,.F.,.F.,(2,2),(2,2),(-1.7763568394E-14,
    44.99999999961),(0.,30.),.PIECEWISE_BEZIER_KNOTS.);
#181 = CARTESIAN_POINT('',(585.23264885149,0.,99.147300508079));
#182 = CARTESIAN_POINT('',(585.23264885149,38.954050903168,
    99.147300508079));
#183 = CARTESIAN_POINT('',(528.96213963869,0.,83.404985657715));
#184 = CARTESIAN_POINT('',(528.96213963869,38.954050903168,
    83.404985657715));
#185 = ADVANCED_FACE('',(#186),#222,.F.);
#186 = FACE_BOUND('',#187,.F.);
#187 = EDGE_LOOP('',(#188,#197,#207,#214));
#188 = ORIENTED_EDGE('',*,*,#189,.F.);
#189 = EDGE_CURVE('',#190,#192,#194,.T.);
#190 = VERTEX_POINT('',#191);
#191 = CARTESIAN_POINT('',(582.41820057308,0.,140.00783354544));
#192 = VERTEX_POINT('',#193);
#193 = CARTESIAN_POINT('',(582.41820057308,38.954050903168,
    140.00783354544));
#194 = B_SPLINE_CURVE_WITH_KNOTS('',1,(#195,#196),.UNSPECIFIED.,.F.,.F.,
  (2,2),(-15.,15.),.PIECEWISE_BEZIER_KNOTS.);
#195 = CARTESIAN_POINT('',(582.41820057308,0.,140.00783354544));
#196 = CARTESIAN_POINT('',(582.41820057308,38.954050903168,
    140.00783354544));
#197 = ORIENTED_EDGE('',*,*,#198,.T.);
#198 = EDGE_CURVE('',#190,#199,#201,.T.);
#199 = VERTEX_POINT('',#200);
#200 = CARTESIAN_POINT('',(504.51009876675,0.,140.00783354544));
#201 = ( BOUNDED_CURVE() B_SPLINE_CURVE(2,(#202,#203,#204,#205,#206),
.UNSPECIFIED.,.F.,.F.) B_SPLINE_CURVE_WITH_KNOTS((3,2,3),(1.570796326795
,3.14159265359,4.712388980385),.PIECEWISE_BEZIER_KNOTS.) CURVE() 
GEOMETRIC_REPRESENTATION_ITEM() RATIONAL_B_SPLINE_CURVE((1.,
0.707106781187,1.,0.707106781187,1.)) REPRESENTATION_ITEM('') );
#202 = CARTESIAN_POINT('',(582.41820057308,0.,140.00783354544));
#203 = CARTESIAN_POINT('',(582.41820057308,0.,101.05378264227));
#204 = CARTESIAN_POINT('',(543.46414966992,0.,101.05378264227));
#205 = CARTESIAN_POINT('',(504.51009876675,0.,101.05378264227));
#206 = CARTESIAN_POINT('',(504.51009876675,0.,140.00783354544));
#207 = ORIENTED_EDGE('',*,*,#208,.T.);
#208 = EDGE_CURVE('',#199,#209,#211,.T.);
#209 = VERTEX_POINT('',#210);
#210 = CARTESIAN_POINT('',(504.51009876675,38.954050903168,
    140.00783354544));
#211 = B_SPLINE_CURVE_WITH_KNOTS('',1,(#212,#213),.UNSPECIFIED.,.F.,.F.,
  (2,2),(-15.,15.),.PIECEWISE_BEZIER_KNOTS.);
#212 = CARTESIAN_POINT('',(504.51009876675,0.,140.00783354544));
#213 = CARTESIAN_POINT('',(504.51009876675,38.954050903168,
    140.00783354544));
#214 = ORIENTED_EDGE('',*,*,#215,.F.);
#215 = EDGE_CURVE('',#192,#209,#216,.T.);
#216 = ( BOUNDED_CURVE() B_SPLINE_CURVE(2,(#217,#218,#219,#220,#221),
.UNSPECIFIED.,.F.,.F.) B_SPLINE_CURVE_WITH_KNOTS((3,2,3),(1.570796326795
,3.14159265359,4.712388980385),.PIECEWISE_BEZIER_KNOTS.) CURVE() 
GEOMETRIC_REPRESENTATION_ITEM() RATIONAL_B_SPLINE_CURVE((1.,
0.707106781187,1.,0.707106781187,1.)) REPRESENTATION_ITEM('') );
#217 = CARTESIAN_POINT('',(582.41820057308,38.954050903168,
    140.00783354544));
#218 = CARTESIAN_POINT('',(582.41820057308,38.954050903168,
    101.05378264227));
#219 = CARTESIAN_POINT('',(543.46414966992,38.954050903168,
    101.05378264227));
#220 = CARTESIAN_POINT('',(504.51009876675,38.954050903168,
    101.05378264227));
#221 = CARTESIAN_POINT('',(504.51009876675,38.954050903168,
    140.00783354544));
#222 = ( BOUNDED_SURFACE() B_SPLINE_SURFACE(2,1,(
    (#223,#224)
    ,(#225,#226)
    ,(#227,#228)
    ,(#229,#230)
,(#231,#232
    )),.UNSPECIFIED.,.F.,.F.,.F.) B_SPLINE_SURFACE_WITH_KNOTS((3,2,3),(2
    ,2),(3.14159265359,4.712388980385,6.28318530718),(-15.,15.),
.PIECEWISE_BEZIER_KNOTS.) GEOMETRIC_REPRESENTATION_ITEM() 
RATIONAL_B_SPLINE_SURFACE((
    (1.,1.)
    ,(0.707106781187,0.707106781187)
    ,(1.,1.)
    ,(0.707106781187,0.707106781187)
,(1.,1.))) REPRESENTATION_ITEM('') SURFACE() );
#223 = CARTESIAN_POINT('',(582.41820057308,0.,140.00783354544));
#224 = CARTESIAN_POINT('',(582.41820057308,38.954050903168,
    140.00783354544));
#225 = CARTESIAN_POINT('',(582.41820057308,0.,101.05378264227));
#226 = CARTESIAN_POINT('',(582.41820057308,38.954050903168,
    101.05378264227));
#227 = CARTESIAN_POINT('',(543.46414966992,0.,101.05378264227));
#228 = CARTESIAN_POINT('',(543.46414966992,38.954050903168,
    101.05378264227));
#229 = CARTESIAN_POINT('',(504.51009876675,0.,101.05378264227));
#230 = CARTESIAN_POINT('',(504.51009876675,38.954050903168,
    101.05378264227));
#231 = CARTESIAN_POINT('',(504.51009876675,0.,140.00783354544));
#232 = CARTESIAN_POINT('',(504.51009876675,38.954050903168,
    140.00783354544));
#233 = ADVANCED_FACE('',(#234),#254,.F.);
#234 = FACE_BOUND('',#235,.F.);
#235 = EDGE_LOOP('',(#236,#237,#245,#246));
#236 = ORIENTED_EDGE('',*,*,#208,.F.);
#237 = ORIENTED_EDGE('',*,*,#238,.T.);
#238 = EDGE_CURVE('',#199,#190,#239,.T.);
#239 = ( BOUNDED_CURVE() B_SPLINE_CURVE(2,(#240,#241,#242,#243,#244),
.UNSPECIFIED.,.F.,.F.) B_SPLINE_CURVE_WITH_KNOTS((3,2,3),(4.712388980385
,6.28318530718,7.853981633974),.PIECEWISE_BEZIER_KNOTS.) CURVE() 
GEOMETRIC_REPRESENTATION_ITEM() RATIONAL_B_SPLINE_CURVE((1.,
0.707106781187,1.,0.707106781187,1.)) REPRESENTATION_ITEM('') );
#240 = CARTESIAN_POINT('',(504.51009876675,0.,140.00783354544));
#241 = CARTESIAN_POINT('',(504.51009876675,0.,178.96188444861));
#242 = CARTESIAN_POINT('',(543.46414966992,0.,178.96188444861));
#243 = CARTESIAN_POINT('',(582.41820057308,0.,178.96188444861));
#244 = CARTESIAN_POINT('',(582.41820057308,0.,140.00783354544));
#245 = ORIENTED_EDGE('',*,*,#189,.T.);
#246 = ORIENTED_EDGE('',*,*,#247,.F.);
#247 = EDGE_CURVE('',#209,#192,#248,.T.);
#248 = ( BOUNDED_CURVE() B_SPLINE_CURVE(2,(#249,#250,#251,#252,#253),
.UNSPECIFIED.,.F.,.F.) B_SPLINE_CURVE_WITH_KNOTS((3,2,3),(4.712388980385
,6.28318530718,7.853981633974),.PIECEWISE_BEZIER_KNOTS.) CURVE() 
GEOMETRIC_REPRESENTATION_ITEM() RATIONAL_B_SPLINE_CURVE((1.,
0.707106781187,1.,0.707106781187,1.)) REPRESENTATION_ITEM('') );
#249 = CARTESIAN_POINT('',(504.51009876675,38.954050903168,
    140.00783354544));
#250 = CARTESIAN_POINT('',(504.51009876675,38.954050903168,
    178.96188444861));
#251 = CARTESIAN_POINT('',(543.46414966992,38.954050903168,
    178.96188444861));
#252 = CARTESIAN_POINT('',(582.41820057308,38.954050903168,
    178.96188444861));
#253 = CARTESIAN_POINT('',(582.41820057308,38.954050903168,
    140.00783354544));
#254 = ( BOUNDED_SURFACE() B_SPLINE_SURFACE(2,1,(
    (#255,#256)
    ,(#257,#258)
    ,(#259,#260)
    ,(#261,#262)
,(#263,#264
    )),.UNSPECIFIED.,.F.,.F.,.F.) B_SPLINE_SURFACE_WITH_KNOTS((3,2,3),(2
    ,2),(0.,1.570796326795,3.14159265359),(-15.,15.),
.PIECEWISE_BEZIER_KNOTS.) GEOMETRIC_REPRESENTATION_ITEM() 
RATIONAL_B_SPLINE_SURFACE((
    (1.,1.)
    ,(0.707106781187,0.707106781187)
    ,(1.,1.)
    ,(0.707106781187,0.707106781187)
,(1.,1.))) REPRESENTATION_ITEM('') SURFACE() );
#255 = CARTESIAN_POINT('',(504.51009876675,0.,140.00783354544));
#256 = CARTESIAN_POINT('',(504.51009876675,38.954050903168,
    140.00783354544));
#257 = CARTESIAN_POINT('',(504.51009876675,0.,178.96188444861));
#258 = CARTESIAN_POINT('',(504.51009876675,38.954050903168,
    178.96188444861));
#259 = CARTESIAN_POINT('',(543.46414966992,0.,178.96188444861));
#260 = CARTESIAN_POINT('',(543.46414966992,38.954050903168,
    178.96188444861));
#261 = CARTESIAN_POINT('',(582.41820057308,0.,178.96188444861));
#262 = CARTESIAN_POINT('',(582.41820057308,38.954050903168,
    178.96188444861));
#263 = CARTESIAN_POINT('',(582.41820057308,0.,140.00783354544));
#264 = CARTESIAN_POINT('',(582.41820057308,38.954050903168,
    140.00783354544));
#265 = ADVANCED_FACE('',(#266,#274),#278,.F.);
#266 = FACE_BOUND('',#267,.T.);
#267 = EDGE_LOOP('',(#268,#269,#270,#271,#272,#273));
#268 = ORIENTED_EDGE('',*,*,#170,.F.);
#269 = ORIENTED_EDGE('',*,*,#142,.F.);
#270 = ORIENTED_EDGE('',*,*,#114,.F.);
#271 = ORIENTED_EDGE('',*,*,#86,.F.);
#272 = ORIENTED_EDGE('',*,*,#58,.F.);
#273 = ORIENTED_EDGE('',*,*,#30,.F.);
#274 = FACE_BOUND('',#275,.T.);
#275 = EDGE_LOOP('',(#276,#277));
#276 = ORIENTED_EDGE('',*,*,#238,.T.);
#277 = ORIENTED_EDGE('',*,*,#198,.T.);
#278 = B_SPLINE_SURFACE_WITH_KNOTS('',1,1,(
    (#279,#280)
    ,(#281,#282
    )),.UNSPECIFIED.,.F.,.F.,.F.,(2,2),(2,2),(-461.878529944,
    -375.206400229),(64.233359861435,151.4173829489),
  .PIECEWISE_BEZIER_KNOTS.);
#279 = CARTESIAN_POINT('',(599.73465888407,0.,83.404985657462));
#280 = CARTESIAN_POINT('',(599.73465888407,0.,196.61068143386));
#281 = CARTESIAN_POINT('',(487.19364045719,0.,83.404985657462));
#282 = CARTESIAN_POINT('',(487.19364045719,0.,196.61068143386));
#283 = ADVANCED_FACE('',(#284,#292),#296,.T.);
#284 = FACE_BOUND('',#285,.T.);
#285 = EDGE_LOOP('',(#286,#287,#288,#289,#290,#291));
#286 = ORIENTED_EDGE('',*,*,#44,.T.);
#287 = ORIENTED_EDGE('',*,*,#72,.T.);
#288 = ORIENTED_EDGE('',*,*,#100,.T.);
#289 = ORIENTED_EDGE('',*,*,#128,.T.);
#290 = ORIENTED_EDGE('',*,*,#156,.T.);
#291 = ORIENTED_EDGE('',*,*,#176,.T.);
#292 = FACE_BOUND('',#293,.T.);
#293 = EDGE_LOOP('',(#294,#295));
#294 = ORIENTED_EDGE('',*,*,#215,.F.);
#295 = ORIENTED_EDGE('',*,*,#247,.F.);
#296 = B_SPLINE_SURFACE_WITH_KNOTS('',1,1,(
    (#297,#298)
    ,(#299,#300
    )),.UNSPECIFIED.,.F.,.F.,.F.,(2,2),(2,2),(-461.878529944,
    -375.206400229),(64.233359861435,151.4173829489),
  .PIECEWISE_BEZIER_KNOTS.);
#297 = CARTESIAN_POINT('',(599.73465888407,38.954050903168,
    83.404985657462));
#298 = CARTESIAN_POINT('',(599.73465888407,38.954050903168,
    196.61068143386));
#299 = CARTESIAN_POINT('',(487.19364045719,38.954050903168,
    83.404985657462));
#300 = CARTESIAN_POINT('',(487.19364045719,38.954050903168,
    196.61068143386));
#301 = ( GEOMETRIC_REPRESENTATION_CONTEXT(3) 
GLOBAL_UNCERTAINTY_ASSIGNED_CONTEXT((#305)) GLOBAL_UNIT_ASSIGNED_CONTEXT
((#302,#303,#304)) REPRESENTATION_CONTEXT('Context #1',
  '3D Context with UNIT and UNCERTAINTY') );
#302 = ( LENGTH_UNIT() NAMED_UNIT(*) SI_UNIT(.MILLI.,.METRE.) );
#303 = ( NAMED_UNIT(*) PLANE_ANGLE_UNIT() SI_UNIT($,.RADIAN.) );
#304 = ( NAMED_UNIT(*) SI_UNIT($,.STERADIAN.) SOLID_ANGLE_UNIT() );
#305 = UNCERTAINTY_MEASURE_WITH_UNIT(LENGTH_MEASURE(1.E-07),#302,
  'distance_accuracy_value','confusion accuracy');
#306 = PRODUCT_RELATED_PRODUCT_CATEGORY('part',$,(#7));
ENDSEC;
END-ISO-10303-21;
