ISO-10303-21;
HEADER;
FILE_DESCRIPTION(('FreeCAD Model'),'2;1');
FILE_NAME('Open CASCADE Shape Model','2025-05-04T06:45:40',('FreeCAD'),(
    'FreeCAD'),'Open CASCADE STEP processor 7.6','FreeCAD','Unknown');
FILE_SCHEMA(('AUTOMOTIVE_DESIGN { 1 0 10303 214 1 1 1 1 }'));
ENDSEC;
DATA;
#1 = APPLICATION_PROTOCOL_DEFINITION('international standard',
  'automotive_design',2000,#2);
#2 = APPLICATION_CONTEXT(
  'core data for automotive mechanical design processes');
#3 = SHAPE_DEFINITION_REPRESENTATION(#4,#10);
#4 = PRODUCT_DEFINITION_SHAPE('','',#5);
#5 = PRODUCT_DEFINITION('design','',#6,#9);
#6 = PRODUCT_DEFINITION_FORMATION('','',#7);
#7 = PRODUCT('Open CASCADE STEP translator 7.6 1',
  'Open CASCADE STEP translator 7.6 1','',(#8));
#8 = PRODUCT_CONTEXT('',#2,'mechanical');
#9 = PRODUCT_DEFINITION_CONTEXT('part definition',#2,'design');
#10 = ADVANCED_BREP_SHAPE_REPRESENTATION('',(#11,#15),#117);
#11 = AXIS2_PLACEMENT_3D('',#12,#13,#14);
#12 = CARTESIAN_POINT('',(0.,0.,0.));
#13 = DIRECTION('',(0.,0.,1.));
#14 = DIRECTION('',(1.,0.,-0.));
#15 = MANIFOLD_SOLID_BREP('',#16);
#16 = CLOSED_SHELL('',(#17,#65,#97,#107));
#17 = ADVANCED_FACE('',(#18),#54,.T.);
#18 = FACE_BOUND('',#19,.T.);
#19 = EDGE_LOOP('',(#20,#32,#39,#49));
#20 = ORIENTED_EDGE('',*,*,#21,.T.);
#21 = EDGE_CURVE('',#22,#24,#26,.T.);
#22 = VERTEX_POINT('',#23);
#23 = CARTESIAN_POINT('',(-1.797122107875,2.378543966306,0.));
#24 = VERTEX_POINT('',#25);
#25 = CARTESIAN_POINT('',(-1.797122107875,-2.378543966306,
    2.912876254966E-16));
#26 = ( BOUNDED_CURVE() B_SPLINE_CURVE(2,(#27,#28,#29,#30,#31),
.UNSPECIFIED.,.F.,.F.) B_SPLINE_CURVE_WITH_KNOTS((3,2,3),(4.712388980385
,6.28318530718,7.853981633974),.PIECEWISE_BEZIER_KNOTS.) CURVE() 
GEOMETRIC_REPRESENTATION_ITEM() RATIONAL_B_SPLINE_CURVE((1.,
0.707106781187,1.,0.707106781187,1.)) REPRESENTATION_ITEM('') );
#27 = CARTESIAN_POINT('',(-1.797122107875,2.378543966306,
    -4.369314382451E-16));
#28 = CARTESIAN_POINT('',(-1.797122107875,2.378543966306,2.378543966306)
  );
#29 = CARTESIAN_POINT('',(-1.797122107875,5.825752509935E-16,
    2.378543966306));
#30 = CARTESIAN_POINT('',(-1.797122107875,-2.378543966306,2.378543966306
    ));
#31 = CARTESIAN_POINT('',(-1.797122107875,-2.378543966306,
    7.282190637419E-16));
#32 = ORIENTED_EDGE('',*,*,#33,.T.);
#33 = EDGE_CURVE('',#24,#34,#36,.T.);
#34 = VERTEX_POINT('',#35);
#35 = CARTESIAN_POINT('',(0.,-2.378543966306,2.912876254966E-16));
#36 = B_SPLINE_CURVE_WITH_KNOTS('',1,(#37,#38),.UNSPECIFIED.,.F.,.F.,(2,
    2),(-0.85,0.85),.PIECEWISE_BEZIER_KNOTS.);
#37 = CARTESIAN_POINT('',(-1.797122107875,-2.378543966306,
    2.912876254966E-16));
#38 = CARTESIAN_POINT('',(0.,-2.378543966306,2.912876254966E-16));
#39 = ORIENTED_EDGE('',*,*,#40,.F.);
#40 = EDGE_CURVE('',#41,#34,#43,.T.);
#41 = VERTEX_POINT('',#42);
#42 = CARTESIAN_POINT('',(0.,2.378543966306,0.));
#43 = ( BOUNDED_CURVE() B_SPLINE_CURVE(2,(#44,#45,#46,#47,#48),
.UNSPECIFIED.,.F.,.F.) B_SPLINE_CURVE_WITH_KNOTS((3,2,3),(4.712388980385
,6.28318530718,7.853981633974),.PIECEWISE_BEZIER_KNOTS.) CURVE() 
GEOMETRIC_REPRESENTATION_ITEM() RATIONAL_B_SPLINE_CURVE((1.,
0.707106781187,1.,0.707106781187,1.)) REPRESENTATION_ITEM('') );
#44 = CARTESIAN_POINT('',(0.,2.378543966306,-4.369314382451E-16));
#45 = CARTESIAN_POINT('',(0.,2.378543966306,2.378543966306));
#46 = CARTESIAN_POINT('',(0.,5.825752509935E-16,2.378543966306));
#47 = CARTESIAN_POINT('',(0.,-2.378543966306,2.378543966306));
#48 = CARTESIAN_POINT('',(0.,-2.378543966306,7.282190637419E-16));
#49 = ORIENTED_EDGE('',*,*,#50,.F.);
#50 = EDGE_CURVE('',#22,#41,#51,.T.);
#51 = B_SPLINE_CURVE_WITH_KNOTS('',1,(#52,#53),.UNSPECIFIED.,.F.,.F.,(2,
    2),(-0.85,0.85),.PIECEWISE_BEZIER_KNOTS.);
#52 = CARTESIAN_POINT('',(-1.797122107875,2.378543966306,0.));
#53 = CARTESIAN_POINT('',(0.,2.378543966306,0.));
#54 = ( BOUNDED_SURFACE() B_SPLINE_SURFACE(2,1,(
    (#55,#56)
    ,(#57,#58)
    ,(#59,#60)
    ,(#61,#62)
,(#63,#64
    )),.UNSPECIFIED.,.F.,.F.,.F.) B_SPLINE_SURFACE_WITH_KNOTS((3,2,3),(2
    ,2),(0.,1.570796326795,3.14159265359),(-0.85,0.85),
.PIECEWISE_BEZIER_KNOTS.) GEOMETRIC_REPRESENTATION_ITEM() 
RATIONAL_B_SPLINE_SURFACE((
    (1.,1.)
    ,(0.707106781187,0.707106781187)
    ,(1.,1.)
    ,(0.707106781187,0.707106781187)
,(1.,1.))) REPRESENTATION_ITEM('') SURFACE() );
#55 = CARTESIAN_POINT('',(-1.797122107875,2.378543966306,0.));
#56 = CARTESIAN_POINT('',(0.,2.378543966306,0.));
#57 = CARTESIAN_POINT('',(-1.797122107875,2.378543966306,2.378543966306)
  );
#58 = CARTESIAN_POINT('',(0.,2.378543966306,2.378543966306));
#59 = CARTESIAN_POINT('',(-1.797122107875,1.456438127484E-16,
    2.378543966306));
#60 = CARTESIAN_POINT('',(0.,1.456438127484E-16,2.378543966306));
#61 = CARTESIAN_POINT('',(-1.797122107875,-2.378543966306,2.378543966306
    ));
#62 = CARTESIAN_POINT('',(0.,-2.378543966306,2.378543966306));
#63 = CARTESIAN_POINT('',(-1.797122107875,-2.378543966306,
    2.912876254967E-16));
#64 = CARTESIAN_POINT('',(0.,-2.378543966306,2.912876254967E-16));
#65 = ADVANCED_FACE('',(#66),#86,.T.);
#66 = FACE_BOUND('',#67,.T.);
#67 = EDGE_LOOP('',(#68,#76,#77,#85));
#68 = ORIENTED_EDGE('',*,*,#69,.T.);
#69 = EDGE_CURVE('',#24,#22,#70,.T.);
#70 = ( BOUNDED_CURVE() B_SPLINE_CURVE(2,(#71,#72,#73,#74,#75),
.UNSPECIFIED.,.F.,.F.) B_SPLINE_CURVE_WITH_KNOTS((3,2,3),(1.570796326795
,3.14159265359,4.712388980385),.PIECEWISE_BEZIER_KNOTS.) CURVE() 
GEOMETRIC_REPRESENTATION_ITEM() RATIONAL_B_SPLINE_CURVE((1.,
0.707106781187,1.,0.707106781187,1.)) REPRESENTATION_ITEM('') );
#71 = CARTESIAN_POINT('',(-1.797122107875,-2.378543966306,
    1.456438127484E-16));
#72 = CARTESIAN_POINT('',(-1.797122107875,-2.378543966306,
    -2.378543966306));
#73 = CARTESIAN_POINT('',(-1.797122107875,-2.912876254967E-16,
    -2.378543966306));
#74 = CARTESIAN_POINT('',(-1.797122107875,2.378543966306,-2.378543966306
    ));
#75 = CARTESIAN_POINT('',(-1.797122107875,2.378543966306,
    -4.369314382451E-16));
#76 = ORIENTED_EDGE('',*,*,#50,.T.);
#77 = ORIENTED_EDGE('',*,*,#78,.F.);
#78 = EDGE_CURVE('',#34,#41,#79,.T.);
#79 = ( BOUNDED_CURVE() B_SPLINE_CURVE(2,(#80,#81,#82,#83,#84),
.UNSPECIFIED.,.F.,.F.) B_SPLINE_CURVE_WITH_KNOTS((3,2,3),(1.570796326795
,3.14159265359,4.712388980385),.PIECEWISE_BEZIER_KNOTS.) CURVE() 
GEOMETRIC_REPRESENTATION_ITEM() RATIONAL_B_SPLINE_CURVE((1.,
0.707106781187,1.,0.707106781187,1.)) REPRESENTATION_ITEM('') );
#80 = CARTESIAN_POINT('',(0.,-2.378543966306,1.456438127484E-16));
#81 = CARTESIAN_POINT('',(0.,-2.378543966306,-2.378543966306));
#82 = CARTESIAN_POINT('',(0.,-2.912876254967E-16,-2.378543966306));
#83 = CARTESIAN_POINT('',(0.,2.378543966306,-2.378543966306));
#84 = CARTESIAN_POINT('',(0.,2.378543966306,-4.369314382451E-16));
#85 = ORIENTED_EDGE('',*,*,#33,.F.);
#86 = ( BOUNDED_SURFACE() B_SPLINE_SURFACE(2,1,(
    (#87,#88)
    ,(#89,#90)
    ,(#91,#92)
    ,(#93,#94)
,(#95,#96
    )),.UNSPECIFIED.,.F.,.F.,.F.) B_SPLINE_SURFACE_WITH_KNOTS((3,2,3),(2
    ,2),(3.14159265359,4.712388980385,6.28318530718),(-0.85,0.85),
.PIECEWISE_BEZIER_KNOTS.) GEOMETRIC_REPRESENTATION_ITEM() 
RATIONAL_B_SPLINE_SURFACE((
    (1.,1.)
    ,(0.707106781187,0.707106781187)
    ,(1.,1.)
    ,(0.707106781187,0.707106781187)
,(1.,1.))) REPRESENTATION_ITEM('') SURFACE() );
#87 = CARTESIAN_POINT('',(-1.797122107875,-2.378543966306,
    2.912876254967E-16));
#88 = CARTESIAN_POINT('',(0.,-2.378543966306,2.912876254967E-16));
#89 = CARTESIAN_POINT('',(-1.797122107875,-2.378543966306,
    -2.378543966306));
#90 = CARTESIAN_POINT('',(0.,-2.378543966306,-2.378543966306));
#91 = CARTESIAN_POINT('',(-1.797122107875,-4.369314382451E-16,
    -2.378543966306));
#92 = CARTESIAN_POINT('',(0.,-4.369314382451E-16,-2.378543966306));
#93 = CARTESIAN_POINT('',(-1.797122107875,2.378543966306,-2.378543966306
    ));
#94 = CARTESIAN_POINT('',(0.,2.378543966306,-2.378543966306));
#95 = CARTESIAN_POINT('',(-1.797122107875,2.378543966306,
    -5.825752509935E-16));
#96 = CARTESIAN_POINT('',(0.,2.378543966306,-5.825752509935E-16));
#97 = ADVANCED_FACE('',(#98),#102,.T.);
#98 = FACE_BOUND('',#99,.T.);
#99 = EDGE_LOOP('',(#100,#101));
#100 = ORIENTED_EDGE('',*,*,#40,.T.);
#101 = ORIENTED_EDGE('',*,*,#78,.T.);
#102 = B_SPLINE_SURFACE_WITH_KNOTS('',1,1,(
    (#103,#104)
    ,(#105,#106
    )),.UNSPECIFIED.,.F.,.F.,.F.,(2,2),(2,2),(-2.25,2.25),(-2.25,2.25),
  .PIECEWISE_BEZIER_KNOTS.);
#103 = CARTESIAN_POINT('',(0.,-2.378543966306,-2.378543966306));
#104 = CARTESIAN_POINT('',(0.,-2.378543966306,2.378543966306));
#105 = CARTESIAN_POINT('',(0.,2.378543966306,-2.378543966306));
#106 = CARTESIAN_POINT('',(0.,2.378543966306,2.378543966306));
#107 = ADVANCED_FACE('',(#108),#112,.F.);
#108 = FACE_BOUND('',#109,.T.);
#109 = EDGE_LOOP('',(#110,#111));
#110 = ORIENTED_EDGE('',*,*,#69,.F.);
#111 = ORIENTED_EDGE('',*,*,#21,.F.);
#112 = B_SPLINE_SURFACE_WITH_KNOTS('',1,1,(
    (#113,#114)
    ,(#115,#116
    )),.UNSPECIFIED.,.F.,.F.,.F.,(2,2),(2,2),(-2.25,2.25),(-2.25,2.25),
  .PIECEWISE_BEZIER_KNOTS.);
#113 = CARTESIAN_POINT('',(-1.797122107875,-2.378543966306,
    -2.378543966306));
#114 = CARTESIAN_POINT('',(-1.797122107875,-2.378543966306,
    2.378543966306));
#115 = CARTESIAN_POINT('',(-1.797122107875,2.378543966306,
    -2.378543966306));
#116 = CARTESIAN_POINT('',(-1.797122107875,2.378543966306,2.378543966306
    ));
#117 = ( GEOMETRIC_REPRESENTATION_CONTEXT(3) 
GLOBAL_UNCERTAINTY_ASSIGNED_CONTEXT((#121)) GLOBAL_UNIT_ASSIGNED_CONTEXT
((#118,#119,#120)) REPRESENTATION_CONTEXT('Context #1',
  '3D Context with UNIT and UNCERTAINTY') );
#118 = ( LENGTH_UNIT() NAMED_UNIT(*) SI_UNIT(.MILLI.,.METRE.) );
#119 = ( NAMED_UNIT(*) PLANE_ANGLE_UNIT() SI_UNIT($,.RADIAN.) );
#120 = ( NAMED_UNIT(*) SI_UNIT($,.STERADIAN.) SOLID_ANGLE_UNIT() );
#121 = UNCERTAINTY_MEASURE_WITH_UNIT(LENGTH_MEASURE(1.E-07),#118,
  'distance_accuracy_value','confusion accuracy');
#122 = PRODUCT_RELATED_PRODUCT_CATEGORY('part',$,(#7));
ENDSEC;
END-ISO-10303-21;
