ISO-10303-21;
HEADER;
FILE_DESCRIPTION(('FreeCAD Model'),'2;1');
FILE_NAME('Open CASCADE Shape Model','2025-05-04T03:10:59',('FreeCAD'),(
    'FreeCAD'),'Open CASCADE STEP processor 7.6','FreeCAD','Unknown');
FILE_SCHEMA(('AUTOMOTIVE_DESIGN { 1 0 10303 214 1 1 1 1 }'));
ENDSEC;
DATA;
#1 = APPLICATION_PROTOCOL_DEFINITION('international standard',
  'automotive_design',2000,#2);
#2 = APPLICATION_CONTEXT(
  'core data for automotive mechanical design processes');
#3 = SHAPE_DEFINITION_REPRESENTATION(#4,#10);
#4 = PRODUCT_DEFINITION_SHAPE('','',#5);
#5 = PRODUCT_DEFINITION('design','',#6,#9);
#6 = PRODUCT_DEFINITION_FORMATION('','',#7);
#7 = PRODUCT('Open CASCADE STEP translator 7.6 1',
  'Open CASCADE STEP translator 7.6 1','',(#8));
#8 = PRODUCT_CONTEXT('',#2,'mechanical');
#9 = PRODUCT_DEFINITION_CONTEXT('part definition',#2,'design');
#10 = ADVANCED_BREP_SHAPE_REPRESENTATION('',(#11,#15),#321);
#11 = AXIS2_PLACEMENT_3D('',#12,#13,#14);
#12 = CARTESIAN_POINT('',(0.,0.,0.));
#13 = DIRECTION('',(0.,0.,1.));
#14 = DIRECTION('',(1.,0.,-0.));
#15 = MANIFOLD_SOLID_BREP('',#16);
#16 = CLOSED_SHELL('',(#17,#121,#178,#259));
#17 = ADVANCED_FACE('',(#18),#75,.T.);
#18 = FACE_BOUND('',#19,.T.);
#19 = EDGE_LOOP('',(#20,#34,#44,#52,#62,#68,#69));
#20 = ORIENTED_EDGE('',*,*,#21,.T.);
#21 = EDGE_CURVE('',#22,#24,#26,.T.);
#22 = VERTEX_POINT('',#23);
#23 = CARTESIAN_POINT('',(-1.306079323793,7.8536562114,
    -2.404488735224E-15));
#24 = VERTEX_POINT('',#25);
#25 = CARTESIAN_POINT('',(-1.306079323793,0.,7.8536562114));
#26 = ( BOUNDED_CURVE() B_SPLINE_CURVE(2,(#27,#28,#29,#30,#31,#32,#33),
.UNSPECIFIED.,.F.,.F.) B_SPLINE_CURVE_WITH_KNOTS((3,2,2,3),(
    -3.14159265359,-1.570796326795,-1.480297366167E-16,1.570796326795),
.UNSPECIFIED.) CURVE() GEOMETRIC_REPRESENTATION_ITEM() 
RATIONAL_B_SPLINE_CURVE((1.,0.707106781187,1.,0.707106781187,1.,
0.707106781187,1.)) REPRESENTATION_ITEM('') );
#27 = CARTESIAN_POINT('',(-1.306079323793,7.8536562114,
    -2.404488735224E-15));
#28 = CARTESIAN_POINT('',(-1.306079323793,7.8536562114,-7.8536562114));
#29 = CARTESIAN_POINT('',(-1.306079323793,-1.923590988179E-15,
    -7.8536562114));
#30 = CARTESIAN_POINT('',(-1.306079323793,-7.8536562114,-7.8536562114));
#31 = CARTESIAN_POINT('',(-1.306079323793,-7.8536562114,
    2.801185806826E-16));
#32 = CARTESIAN_POINT('',(-1.306079323793,-7.8536562114,7.8536562114));
#33 = CARTESIAN_POINT('',(-1.306079323793,-7.820664965878E-16,
    7.8536562114));
#34 = ORIENTED_EDGE('',*,*,#35,.T.);
#35 = EDGE_CURVE('',#24,#36,#38,.T.);
#36 = VERTEX_POINT('',#37);
#37 = CARTESIAN_POINT('',(-1.240775357603,0.,7.712474385977));
#38 = ( BOUNDED_CURVE() B_SPLINE_CURVE(2,(#39,#40,#41,#42,#43),
.UNSPECIFIED.,.F.,.F.) B_SPLINE_CURVE_WITH_KNOTS((3,2,3),(0.866486364646
,2.004039509118,3.14159265359),.UNSPECIFIED.) CURVE() 
GEOMETRIC_REPRESENTATION_ITEM() RATIONAL_B_SPLINE_CURVE((1.,
0.84256054576,1.,0.84256054576,1.)) REPRESENTATION_ITEM('') );
#39 = CARTESIAN_POINT('',(-1.306079323793,0.,7.8536562114));
#40 = CARTESIAN_POINT('',(-1.341549472302,0.,7.811911053177));
#41 = CARTESIAN_POINT('',(-1.318552146926,0.,7.762192719577));
#42 = CARTESIAN_POINT('',(-1.295554821551,0.,7.712474385977));
#43 = CARTESIAN_POINT('',(-1.240775357603,0.,7.712474385977));
#44 = ORIENTED_EDGE('',*,*,#45,.T.);
#45 = EDGE_CURVE('',#36,#46,#48,.T.);
#46 = VERTEX_POINT('',#47);
#47 = CARTESIAN_POINT('',(-1.240775357603,-7.712474385977,0.));
#48 = ( BOUNDED_CURVE() B_SPLINE_CURVE(2,(#49,#50,#51),.UNSPECIFIED.,.F.
,.F.) B_SPLINE_CURVE_WITH_KNOTS((3,3),(-1.570796326795,
1.836970198721E-16),.PIECEWISE_BEZIER_KNOTS.) CURVE() 
GEOMETRIC_REPRESENTATION_ITEM() RATIONAL_B_SPLINE_CURVE((1.,
0.707106781187,1.)) REPRESENTATION_ITEM('') );
#49 = CARTESIAN_POINT('',(-1.240775357603,-7.680076209995E-16,
    7.712474385977));
#50 = CARTESIAN_POINT('',(-1.240775357603,-7.712474385977,7.712474385977
    ));
#51 = CARTESIAN_POINT('',(-1.240775357603,-7.712474385977,0.));
#52 = ORIENTED_EDGE('',*,*,#53,.T.);
#53 = EDGE_CURVE('',#46,#54,#56,.T.);
#54 = VERTEX_POINT('',#55);
#55 = CARTESIAN_POINT('',(-1.240775357603,7.712474385977,
    -4.722528535147E-16));
#56 = ( BOUNDED_CURVE() B_SPLINE_CURVE(2,(#57,#58,#59,#60,#61),
.UNSPECIFIED.,.F.,.F.) B_SPLINE_CURVE_WITH_KNOTS((3,2,3),(
    1.836970198721E-16,1.570796326795,3.14159265359),.UNSPECIFIED.) 
CURVE() GEOMETRIC_REPRESENTATION_ITEM() RATIONAL_B_SPLINE_CURVE((1.,
0.707106781187,1.,0.707106781187,1.)) REPRESENTATION_ITEM('') );
#57 = CARTESIAN_POINT('',(-1.240775357603,-7.712474385977,0.));
#58 = CARTESIAN_POINT('',(-1.240775357603,-7.712474385977,
    -7.712474385977));
#59 = CARTESIAN_POINT('',(-1.240775357603,-1.889011414059E-15,
    -7.712474385977));
#60 = CARTESIAN_POINT('',(-1.240775357603,7.712474385977,-7.712474385977
    ));
#61 = CARTESIAN_POINT('',(-1.240775357603,7.712474385977,
    -2.361264267573E-15));
#62 = ORIENTED_EDGE('',*,*,#63,.T.);
#63 = EDGE_CURVE('',#54,#36,#64,.T.);
#64 = ( BOUNDED_CURVE() B_SPLINE_CURVE(2,(#65,#66,#67),.UNSPECIFIED.,.F.
,.F.) B_SPLINE_CURVE_WITH_KNOTS((3,3),(-3.14159265359,-1.570796326795),
.PIECEWISE_BEZIER_KNOTS.) CURVE() GEOMETRIC_REPRESENTATION_ITEM() 
RATIONAL_B_SPLINE_CURVE((1.,0.707106781187,1.)) REPRESENTATION_ITEM('') 
  );
#65 = CARTESIAN_POINT('',(-1.240775357603,7.712474385977,
    -4.722528535147E-16));
#66 = CARTESIAN_POINT('',(-1.240775357603,7.712474385977,7.712474385977)
  );
#67 = CARTESIAN_POINT('',(-1.240775357603,-7.680076209995E-16,
    7.712474385977));
#68 = ORIENTED_EDGE('',*,*,#35,.F.);
#69 = ORIENTED_EDGE('',*,*,#70,.T.);
#70 = EDGE_CURVE('',#24,#22,#71,.T.);
#71 = ( BOUNDED_CURVE() B_SPLINE_CURVE(2,(#72,#73,#74),.UNSPECIFIED.,.F.
,.F.) B_SPLINE_CURVE_WITH_KNOTS((3,3),(1.570796326795,3.14159265359),
.PIECEWISE_BEZIER_KNOTS.) CURVE() GEOMETRIC_REPRESENTATION_ITEM() 
RATIONAL_B_SPLINE_CURVE((1.,0.707106781187,1.)) REPRESENTATION_ITEM('') 
  );
#72 = CARTESIAN_POINT('',(-1.306079323793,-7.820664965878E-16,
    7.8536562114));
#73 = CARTESIAN_POINT('',(-1.306079323793,7.8536562114,7.8536562114));
#74 = CARTESIAN_POINT('',(-1.306079323793,7.8536562114,
    -4.808977470447E-16));
#75 = ( BOUNDED_SURFACE() B_SPLINE_SURFACE(2,2,(
    (#76,#77,#78,#79,#80,#81,#82,#83,#84)
    ,(#85,#86,#87,#88,#89,#90,#91,#92,#93)
    ,(#94,#95,#96,#97,#98,#99,#100,#101,#102)
    ,(#103,#104,#105,#106,#107,#108,#109,#110,#111)
    ,(#112,#113,#114,#115,#116,#117,#118,#119,#120
)),.UNSPECIFIED.,.F.,.T.,.F.) B_SPLINE_SURFACE_WITH_KNOTS((3,2,3),(1,2,2
    ,2,2,2,1),(-3.14159265359,-2.004039509118,-0.866486364646),(
    -4.712388980385,-3.14159265359,-1.570796326795,0.,1.570796326795,
    3.14159265359,4.712388980385),.UNSPECIFIED.) 
GEOMETRIC_REPRESENTATION_ITEM() RATIONAL_B_SPLINE_SURFACE((
    (1.,0.707106781187,1.,0.707106781187,1.,0.707106781187,1.
      ,0.707106781187,1.)
    ,(0.84256054576,0.595780275467,0.84256054576,0.595780275467
      ,0.84256054576,0.595780275467,0.84256054576,0.595780275467
      ,0.84256054576)
    ,(1.,0.707106781187,1.,0.707106781187,1.,0.707106781187,1.
      ,0.707106781187,1.)
    ,(0.84256054576,0.595780275467,0.84256054576,0.595780275467
      ,0.84256054576,0.595780275467,0.84256054576,0.595780275467
      ,0.84256054576)
    ,(1.,0.707106781187,1.,0.707106781187,1.,0.707106781187,1.
,0.707106781187,1.))) REPRESENTATION_ITEM('') SURFACE() );
#76 = CARTESIAN_POINT('',(-1.306079323793,0.,7.8536562114));
#77 = CARTESIAN_POINT('',(-1.306079323793,-7.8536562114,7.8536562114));
#78 = CARTESIAN_POINT('',(-1.306079323793,-7.8536562114,0.));
#79 = CARTESIAN_POINT('',(-1.306079323793,-7.8536562114,-7.8536562114));
#80 = CARTESIAN_POINT('',(-1.306079323793,0.,-7.8536562114));
#81 = CARTESIAN_POINT('',(-1.306079323793,7.8536562114,-7.8536562114));
#82 = CARTESIAN_POINT('',(-1.306079323793,7.8536562114,0.));
#83 = CARTESIAN_POINT('',(-1.306079323793,7.8536562114,7.8536562114));
#84 = CARTESIAN_POINT('',(-1.306079323793,0.,7.8536562114));
#85 = CARTESIAN_POINT('',(-1.341549472302,0.,7.811911053177));
#86 = CARTESIAN_POINT('',(-1.341549472302,-7.811911053177,7.811911053177
    ));
#87 = CARTESIAN_POINT('',(-1.341549472302,-7.811911053177,0.));
#88 = CARTESIAN_POINT('',(-1.341549472302,-7.811911053177,
    -7.811911053177));
#89 = CARTESIAN_POINT('',(-1.341549472302,0.,-7.811911053177));
#90 = CARTESIAN_POINT('',(-1.341549472302,7.811911053177,-7.811911053177
    ));
#91 = CARTESIAN_POINT('',(-1.341549472302,7.811911053177,0.));
#92 = CARTESIAN_POINT('',(-1.341549472302,7.811911053177,7.811911053177)
  );
#93 = CARTESIAN_POINT('',(-1.341549472302,0.,7.811911053177));
#94 = CARTESIAN_POINT('',(-1.318552146926,0.,7.762192719577));
#95 = CARTESIAN_POINT('',(-1.318552146926,-7.762192719577,7.762192719577
    ));
#96 = CARTESIAN_POINT('',(-1.318552146926,-7.762192719577,0.));
#97 = CARTESIAN_POINT('',(-1.318552146926,-7.762192719577,
    -7.762192719577));
#98 = CARTESIAN_POINT('',(-1.318552146926,0.,-7.762192719577));
#99 = CARTESIAN_POINT('',(-1.318552146926,7.762192719577,-7.762192719577
    ));
#100 = CARTESIAN_POINT('',(-1.318552146926,7.762192719577,0.));
#101 = CARTESIAN_POINT('',(-1.318552146926,7.762192719577,7.762192719577
    ));
#102 = CARTESIAN_POINT('',(-1.318552146926,0.,7.762192719577));
#103 = CARTESIAN_POINT('',(-1.295554821551,0.,7.712474385977));
#104 = CARTESIAN_POINT('',(-1.295554821551,-7.712474385977,
    7.712474385977));
#105 = CARTESIAN_POINT('',(-1.295554821551,-7.712474385977,0.));
#106 = CARTESIAN_POINT('',(-1.295554821551,-7.712474385977,
    -7.712474385977));
#107 = CARTESIAN_POINT('',(-1.295554821551,0.,-7.712474385977));
#108 = CARTESIAN_POINT('',(-1.295554821551,7.712474385977,
    -7.712474385977));
#109 = CARTESIAN_POINT('',(-1.295554821551,7.712474385977,0.));
#110 = CARTESIAN_POINT('',(-1.295554821551,7.712474385977,7.712474385977
    ));
#111 = CARTESIAN_POINT('',(-1.295554821551,0.,7.712474385977));
#112 = CARTESIAN_POINT('',(-1.240775357603,0.,7.712474385977));
#113 = CARTESIAN_POINT('',(-1.240775357603,-7.712474385977,
    7.712474385977));
#114 = CARTESIAN_POINT('',(-1.240775357603,-7.712474385977,0.));
#115 = CARTESIAN_POINT('',(-1.240775357603,-7.712474385977,
    -7.712474385977));
#116 = CARTESIAN_POINT('',(-1.240775357603,0.,-7.712474385977));
#117 = CARTESIAN_POINT('',(-1.240775357603,7.712474385977,
    -7.712474385977));
#118 = CARTESIAN_POINT('',(-1.240775357603,7.712474385977,0.));
#119 = CARTESIAN_POINT('',(-1.240775357603,7.712474385977,7.712474385977
    ));
#120 = CARTESIAN_POINT('',(-1.240775357603,0.,7.712474385977));
#121 = ADVANCED_FACE('',(#122),#159,.T.);
#122 = FACE_BOUND('',#123,.T.);
#123 = EDGE_LOOP('',(#124,#136,#144,#150,#155,#156,#157,#158));
#124 = ORIENTED_EDGE('',*,*,#125,.F.);
#125 = EDGE_CURVE('',#126,#128,#130,.T.);
#126 = VERTEX_POINT('',#127);
#127 = CARTESIAN_POINT('',(1.240775357603,7.712474385977,
    -2.361264267573E-15));
#128 = VERTEX_POINT('',#129);
#129 = CARTESIAN_POINT('',(1.240775357603,-7.712474385977,0.));
#130 = ( BOUNDED_CURVE() B_SPLINE_CURVE(2,(#131,#132,#133,#134,#135),
.UNSPECIFIED.,.F.,.F.) B_SPLINE_CURVE_WITH_KNOTS((3,2,3),(-3.14159265359
,-1.570796326795,-1.836970198721E-16),.UNSPECIFIED.) CURVE() 
GEOMETRIC_REPRESENTATION_ITEM() RATIONAL_B_SPLINE_CURVE((1.,
0.707106781187,1.,0.707106781187,1.)) REPRESENTATION_ITEM('') );
#131 = CARTESIAN_POINT('',(1.240775357603,7.712474385977,
    -2.361264267573E-15));
#132 = CARTESIAN_POINT('',(1.240775357603,7.712474385977,-7.712474385977
    ));
#133 = CARTESIAN_POINT('',(1.240775357603,-1.889011414059E-15,
    -7.712474385977));
#134 = CARTESIAN_POINT('',(1.240775357603,-7.712474385977,
    -7.712474385977));
#135 = CARTESIAN_POINT('',(1.240775357603,-7.712474385977,0.));
#136 = ORIENTED_EDGE('',*,*,#137,.F.);
#137 = EDGE_CURVE('',#138,#126,#140,.T.);
#138 = VERTEX_POINT('',#139);
#139 = CARTESIAN_POINT('',(1.240775357603,0.,7.712474385977));
#140 = ( BOUNDED_CURVE() B_SPLINE_CURVE(2,(#141,#142,#143),
.UNSPECIFIED.,.F.,.F.) B_SPLINE_CURVE_WITH_KNOTS((3,3),(1.570796326795,
3.14159265359),.PIECEWISE_BEZIER_KNOTS.) CURVE() 
GEOMETRIC_REPRESENTATION_ITEM() RATIONAL_B_SPLINE_CURVE((1.,
0.707106781187,1.)) REPRESENTATION_ITEM('') );
#141 = CARTESIAN_POINT('',(1.240775357603,-7.680076209995E-16,
    7.712474385977));
#142 = CARTESIAN_POINT('',(1.240775357603,7.712474385977,7.712474385977)
  );
#143 = CARTESIAN_POINT('',(1.240775357603,7.712474385977,
    -4.722528535147E-16));
#144 = ORIENTED_EDGE('',*,*,#145,.F.);
#145 = EDGE_CURVE('',#128,#138,#146,.T.);
#146 = ( BOUNDED_CURVE() B_SPLINE_CURVE(2,(#147,#148,#149),
.UNSPECIFIED.,.F.,.F.) B_SPLINE_CURVE_WITH_KNOTS((3,3),(
-1.836970198721E-16,1.570796326795),.PIECEWISE_BEZIER_KNOTS.) CURVE() 
GEOMETRIC_REPRESENTATION_ITEM() RATIONAL_B_SPLINE_CURVE((1.,
0.707106781187,1.)) REPRESENTATION_ITEM('') );
#147 = CARTESIAN_POINT('',(1.240775357603,-7.712474385977,0.));
#148 = CARTESIAN_POINT('',(1.240775357603,-7.712474385977,7.712474385977
    ));
#149 = CARTESIAN_POINT('',(1.240775357603,-7.680076209995E-16,
    7.712474385977));
#150 = ORIENTED_EDGE('',*,*,#151,.T.);
#151 = EDGE_CURVE('',#128,#46,#152,.T.);
#152 = B_SPLINE_CURVE_WITH_KNOTS('',1,(#153,#154),.UNSPECIFIED.,.F.,.F.,
  (2,2),(-0.160879024747,0.160879024747),.PIECEWISE_BEZIER_KNOTS.);
#153 = CARTESIAN_POINT('',(1.240775357603,-7.712474385977,0.));
#154 = CARTESIAN_POINT('',(-1.240775357603,-7.712474385977,0.));
#155 = ORIENTED_EDGE('',*,*,#45,.F.);
#156 = ORIENTED_EDGE('',*,*,#63,.F.);
#157 = ORIENTED_EDGE('',*,*,#53,.F.);
#158 = ORIENTED_EDGE('',*,*,#151,.F.);
#159 = ( BOUNDED_SURFACE() B_SPLINE_SURFACE(1,2,(
    (#160,#161,#162,#163,#164,#165,#166,#167,#168)
    ,(#169,#170,#171,#172,#173,#174,#175,#176,#177
)),.UNSPECIFIED.,.F.,.T.,.F.) B_SPLINE_SURFACE_WITH_KNOTS((2,2),(1,2,2,2
    ,2,2,1),(-0.160879024747,0.160879024747),(-4.712388980385,
    -3.14159265359,-1.570796326795,0.,1.570796326795,3.14159265359,
4.712388980385),.UNSPECIFIED.) GEOMETRIC_REPRESENTATION_ITEM() 
RATIONAL_B_SPLINE_SURFACE((
    (1.,0.707106781187,1.,0.707106781187,1.,0.707106781187,1.
      ,0.707106781187,1.)
    ,(1.,0.707106781187,1.,0.707106781187,1.,0.707106781187,1.
,0.707106781187,1.))) REPRESENTATION_ITEM('') SURFACE() );
#160 = CARTESIAN_POINT('',(-1.240775357603,-7.712474385977,0.));
#161 = CARTESIAN_POINT('',(-1.240775357603,-7.712474385977,
    -7.712474385977));
#162 = CARTESIAN_POINT('',(-1.240775357603,0.,-7.712474385977));
#163 = CARTESIAN_POINT('',(-1.240775357603,7.712474385977,
    -7.712474385977));
#164 = CARTESIAN_POINT('',(-1.240775357603,7.712474385977,0.));
#165 = CARTESIAN_POINT('',(-1.240775357603,7.712474385977,7.712474385977
    ));
#166 = CARTESIAN_POINT('',(-1.240775357603,0.,7.712474385977));
#167 = CARTESIAN_POINT('',(-1.240775357603,-7.712474385977,
    7.712474385977));
#168 = CARTESIAN_POINT('',(-1.240775357603,-7.712474385977,0.));
#169 = CARTESIAN_POINT('',(1.240775357603,-7.712474385977,0.));
#170 = CARTESIAN_POINT('',(1.240775357603,-7.712474385977,
    -7.712474385977));
#171 = CARTESIAN_POINT('',(1.240775357603,0.,-7.712474385977));
#172 = CARTESIAN_POINT('',(1.240775357603,7.712474385977,-7.712474385977
    ));
#173 = CARTESIAN_POINT('',(1.240775357603,7.712474385977,0.));
#174 = CARTESIAN_POINT('',(1.240775357603,7.712474385977,7.712474385977)
  );
#175 = CARTESIAN_POINT('',(1.240775357603,0.,7.712474385977));
#176 = CARTESIAN_POINT('',(1.240775357603,-7.712474385977,7.712474385977
    ));
#177 = CARTESIAN_POINT('',(1.240775357603,-7.712474385977,0.));
#178 = ADVANCED_FACE('',(#179),#213,.T.);
#179 = FACE_BOUND('',#180,.T.);
#180 = EDGE_LOOP('',(#181,#182,#183,#193,#205,#211,#212));
#181 = ORIENTED_EDGE('',*,*,#125,.T.);
#182 = ORIENTED_EDGE('',*,*,#145,.T.);
#183 = ORIENTED_EDGE('',*,*,#184,.T.);
#184 = EDGE_CURVE('',#138,#185,#187,.T.);
#185 = VERTEX_POINT('',#186);
#186 = CARTESIAN_POINT('',(1.306079323793,0.,7.8536562114));
#187 = ( BOUNDED_CURVE() B_SPLINE_CURVE(2,(#188,#189,#190,#191,#192),
.UNSPECIFIED.,.F.,.F.) B_SPLINE_CURVE_WITH_KNOTS((3,2,3),(-3.14159265359
,-2.004039509118,-0.866486364646),.UNSPECIFIED.) CURVE() 
GEOMETRIC_REPRESENTATION_ITEM() RATIONAL_B_SPLINE_CURVE((1.,
0.84256054576,1.,0.84256054576,1.)) REPRESENTATION_ITEM('') );
#188 = CARTESIAN_POINT('',(1.240775357603,0.,7.712474385977));
#189 = CARTESIAN_POINT('',(1.295554821551,0.,7.712474385977));
#190 = CARTESIAN_POINT('',(1.318552146926,0.,7.762192719577));
#191 = CARTESIAN_POINT('',(1.341549472302,0.,7.811911053177));
#192 = CARTESIAN_POINT('',(1.306079323793,0.,7.8536562114));
#193 = ORIENTED_EDGE('',*,*,#194,.T.);
#194 = EDGE_CURVE('',#185,#195,#197,.T.);
#195 = VERTEX_POINT('',#196);
#196 = CARTESIAN_POINT('',(1.306079323793,7.8536562114,
    -4.808977470447E-16));
#197 = ( BOUNDED_CURVE() B_SPLINE_CURVE(2,(#198,#199,#200,#201,#202,#203
,#204),.UNSPECIFIED.,.F.,.F.) B_SPLINE_CURVE_WITH_KNOTS((3,2,2,3),(
    -1.570796326795,1.480297366167E-16,1.570796326795,3.14159265359),
.UNSPECIFIED.) CURVE() GEOMETRIC_REPRESENTATION_ITEM() 
RATIONAL_B_SPLINE_CURVE((1.,0.707106781187,1.,0.707106781187,1.,
0.707106781187,1.)) REPRESENTATION_ITEM('') );
#198 = CARTESIAN_POINT('',(1.306079323793,-7.820664965878E-16,
    7.8536562114));
#199 = CARTESIAN_POINT('',(1.306079323793,-7.8536562114,7.8536562114));
#200 = CARTESIAN_POINT('',(1.306079323793,-7.8536562114,
    2.801185806826E-16));
#201 = CARTESIAN_POINT('',(1.306079323793,-7.8536562114,-7.8536562114));
#202 = CARTESIAN_POINT('',(1.306079323793,-1.923590988179E-15,
    -7.8536562114));
#203 = CARTESIAN_POINT('',(1.306079323793,7.8536562114,-7.8536562114));
#204 = CARTESIAN_POINT('',(1.306079323793,7.8536562114,
    -2.404488735224E-15));
#205 = ORIENTED_EDGE('',*,*,#206,.T.);
#206 = EDGE_CURVE('',#195,#185,#207,.T.);
#207 = ( BOUNDED_CURVE() B_SPLINE_CURVE(2,(#208,#209,#210),
.UNSPECIFIED.,.F.,.F.) B_SPLINE_CURVE_WITH_KNOTS((3,3),(-3.14159265359,
-1.570796326795),.PIECEWISE_BEZIER_KNOTS.) CURVE() 
GEOMETRIC_REPRESENTATION_ITEM() RATIONAL_B_SPLINE_CURVE((1.,
0.707106781187,1.)) REPRESENTATION_ITEM('') );
#208 = CARTESIAN_POINT('',(1.306079323793,7.8536562114,
    -4.808977470447E-16));
#209 = CARTESIAN_POINT('',(1.306079323793,7.8536562114,7.8536562114));
#210 = CARTESIAN_POINT('',(1.306079323793,-7.820664965878E-16,
    7.8536562114));
#211 = ORIENTED_EDGE('',*,*,#184,.F.);
#212 = ORIENTED_EDGE('',*,*,#137,.T.);
#213 = ( BOUNDED_SURFACE() B_SPLINE_SURFACE(2,2,(
    (#214,#215,#216,#217,#218,#219,#220,#221,#222)
    ,(#223,#224,#225,#226,#227,#228,#229,#230,#231)
    ,(#232,#233,#234,#235,#236,#237,#238,#239,#240)
    ,(#241,#242,#243,#244,#245,#246,#247,#248,#249)
    ,(#250,#251,#252,#253,#254,#255,#256,#257,#258
)),.UNSPECIFIED.,.F.,.T.,.F.) B_SPLINE_SURFACE_WITH_KNOTS((3,2,3),(1,2,2
    ,2,2,2,1),(0.866486364646,2.004039509118,3.14159265359),(
    -4.712388980385,-3.14159265359,-1.570796326795,0.,1.570796326795,
    3.14159265359,4.712388980385),.UNSPECIFIED.) 
GEOMETRIC_REPRESENTATION_ITEM() RATIONAL_B_SPLINE_SURFACE((
    (1.,0.707106781187,1.,0.707106781187,1.,0.707106781187,1.
      ,0.707106781187,1.)
    ,(0.84256054576,0.595780275467,0.84256054576,0.595780275467
      ,0.84256054576,0.595780275467,0.84256054576,0.595780275467
      ,0.84256054576)
    ,(1.,0.707106781187,1.,0.707106781187,1.,0.707106781187,1.
      ,0.707106781187,1.)
    ,(0.84256054576,0.595780275467,0.84256054576,0.595780275467
      ,0.84256054576,0.595780275467,0.84256054576,0.595780275467
      ,0.84256054576)
    ,(1.,0.707106781187,1.,0.707106781187,1.,0.707106781187,1.
,0.707106781187,1.))) REPRESENTATION_ITEM('') SURFACE() );
#214 = CARTESIAN_POINT('',(1.240775357603,0.,7.712474385977));
#215 = CARTESIAN_POINT('',(1.240775357603,-7.712474385977,7.712474385977
    ));
#216 = CARTESIAN_POINT('',(1.240775357603,-7.712474385977,0.));
#217 = CARTESIAN_POINT('',(1.240775357603,-7.712474385977,
    -7.712474385977));
#218 = CARTESIAN_POINT('',(1.240775357603,0.,-7.712474385977));
#219 = CARTESIAN_POINT('',(1.240775357603,7.712474385977,-7.712474385977
    ));
#220 = CARTESIAN_POINT('',(1.240775357603,7.712474385977,0.));
#221 = CARTESIAN_POINT('',(1.240775357603,7.712474385977,7.712474385977)
  );
#222 = CARTESIAN_POINT('',(1.240775357603,0.,7.712474385977));
#223 = CARTESIAN_POINT('',(1.295554821551,0.,7.712474385977));
#224 = CARTESIAN_POINT('',(1.295554821551,-7.712474385977,7.712474385977
    ));
#225 = CARTESIAN_POINT('',(1.295554821551,-7.712474385977,0.));
#226 = CARTESIAN_POINT('',(1.295554821551,-7.712474385977,
    -7.712474385977));
#227 = CARTESIAN_POINT('',(1.295554821551,0.,-7.712474385977));
#228 = CARTESIAN_POINT('',(1.295554821551,7.712474385977,-7.712474385977
    ));
#229 = CARTESIAN_POINT('',(1.295554821551,7.712474385977,0.));
#230 = CARTESIAN_POINT('',(1.295554821551,7.712474385977,7.712474385977)
  );
#231 = CARTESIAN_POINT('',(1.295554821551,0.,7.712474385977));
#232 = CARTESIAN_POINT('',(1.318552146926,0.,7.762192719577));
#233 = CARTESIAN_POINT('',(1.318552146926,-7.762192719577,7.762192719577
    ));
#234 = CARTESIAN_POINT('',(1.318552146926,-7.762192719577,0.));
#235 = CARTESIAN_POINT('',(1.318552146926,-7.762192719577,
    -7.762192719577));
#236 = CARTESIAN_POINT('',(1.318552146926,0.,-7.762192719577));
#237 = CARTESIAN_POINT('',(1.318552146926,7.762192719577,-7.762192719577
    ));
#238 = CARTESIAN_POINT('',(1.318552146926,7.762192719577,0.));
#239 = CARTESIAN_POINT('',(1.318552146926,7.762192719577,7.762192719577)
  );
#240 = CARTESIAN_POINT('',(1.318552146926,0.,7.762192719577));
#241 = CARTESIAN_POINT('',(1.341549472302,0.,7.811911053177));
#242 = CARTESIAN_POINT('',(1.341549472302,-7.811911053177,7.811911053177
    ));
#243 = CARTESIAN_POINT('',(1.341549472302,-7.811911053177,0.));
#244 = CARTESIAN_POINT('',(1.341549472302,-7.811911053177,
    -7.811911053177));
#245 = CARTESIAN_POINT('',(1.341549472302,0.,-7.811911053177));
#246 = CARTESIAN_POINT('',(1.341549472302,7.811911053177,-7.811911053177
    ));
#247 = CARTESIAN_POINT('',(1.341549472302,7.811911053177,0.));
#248 = CARTESIAN_POINT('',(1.341549472302,7.811911053177,7.811911053177)
  );
#249 = CARTESIAN_POINT('',(1.341549472302,0.,7.811911053177));
#250 = CARTESIAN_POINT('',(1.306079323793,0.,7.8536562114));
#251 = CARTESIAN_POINT('',(1.306079323793,-7.8536562114,7.8536562114));
#252 = CARTESIAN_POINT('',(1.306079323793,-7.8536562114,0.));
#253 = CARTESIAN_POINT('',(1.306079323793,-7.8536562114,-7.8536562114));
#254 = CARTESIAN_POINT('',(1.306079323793,0.,-7.8536562114));
#255 = CARTESIAN_POINT('',(1.306079323793,7.8536562114,-7.8536562114));
#256 = CARTESIAN_POINT('',(1.306079323793,7.8536562114,0.));
#257 = CARTESIAN_POINT('',(1.306079323793,7.8536562114,7.8536562114));
#258 = CARTESIAN_POINT('',(1.306079323793,0.,7.8536562114));
#259 = ADVANCED_FACE('',(#260),#275,.T.);
#260 = FACE_BOUND('',#261,.T.);
#261 = EDGE_LOOP('',(#262,#263,#264,#272,#273,#274));
#262 = ORIENTED_EDGE('',*,*,#206,.F.);
#263 = ORIENTED_EDGE('',*,*,#194,.F.);
#264 = ORIENTED_EDGE('',*,*,#265,.T.);
#265 = EDGE_CURVE('',#185,#24,#266,.T.);
#266 = ( BOUNDED_CURVE() B_SPLINE_CURVE(2,(#267,#268,#269,#270,#271),
.UNSPECIFIED.,.F.,.F.) B_SPLINE_CURVE_WITH_KNOTS((3,2,3),(
-0.866486364646,0.,0.866486364646),.PIECEWISE_BEZIER_KNOTS.) CURVE() 
GEOMETRIC_REPRESENTATION_ITEM() RATIONAL_B_SPLINE_CURVE((1.,
0.907608983676,1.,0.907608983676,1.)) REPRESENTATION_ITEM('') );
#267 = CARTESIAN_POINT('',(1.306079323793,0.,7.8536562114));
#268 = CARTESIAN_POINT('',(0.792760470461,0.,8.457786096722));
#269 = CARTESIAN_POINT('',(0.,0.,8.457786096722));
#270 = CARTESIAN_POINT('',(-0.792760470461,0.,8.457786096722));
#271 = CARTESIAN_POINT('',(-1.306079323793,0.,7.8536562114));
#272 = ORIENTED_EDGE('',*,*,#21,.F.);
#273 = ORIENTED_EDGE('',*,*,#70,.F.);
#274 = ORIENTED_EDGE('',*,*,#265,.F.);
#275 = ( BOUNDED_SURFACE() B_SPLINE_SURFACE(2,2,(
    (#276,#277,#278,#279,#280,#281,#282,#283,#284)
    ,(#285,#286,#287,#288,#289,#290,#291,#292,#293)
    ,(#294,#295,#296,#297,#298,#299,#300,#301,#302)
    ,(#303,#304,#305,#306,#307,#308,#309,#310,#311)
    ,(#312,#313,#314,#315,#316,#317,#318,#319,#320
)),.UNSPECIFIED.,.F.,.T.,.F.) B_SPLINE_SURFACE_WITH_KNOTS((3,2,3),(1,2,2
    ,2,2,2,1),(-0.866486364646,0.,0.866486364646),(-4.712388980385,
    -3.14159265359,-1.570796326795,0.,1.570796326795,3.14159265359,
4.712388980385),.UNSPECIFIED.) GEOMETRIC_REPRESENTATION_ITEM() 
RATIONAL_B_SPLINE_SURFACE((
    (1.,0.707106781187,1.,0.707106781187,1.,0.707106781187,1.
      ,0.707106781187,1.)
    ,(0.907608983676,0.641776467023,0.907608983676,0.641776467023
      ,0.907608983676,0.641776467023,0.907608983676,0.641776467023
      ,0.907608983676)
    ,(1.,0.707106781187,1.,0.707106781187,1.,0.707106781187,1.
      ,0.707106781187,1.)
    ,(0.907608983676,0.641776467023,0.907608983676,0.641776467023
      ,0.907608983676,0.641776467023,0.907608983676,0.641776467023
      ,0.907608983676)
    ,(1.,0.707106781187,1.,0.707106781187,1.,0.707106781187,1.
,0.707106781187,1.))) REPRESENTATION_ITEM('') SURFACE() );
#276 = CARTESIAN_POINT('',(1.306079323793,0.,7.8536562114));
#277 = CARTESIAN_POINT('',(1.306079323793,-7.8536562114,7.8536562114));
#278 = CARTESIAN_POINT('',(1.306079323793,-7.8536562114,0.));
#279 = CARTESIAN_POINT('',(1.306079323793,-7.8536562114,-7.8536562114));
#280 = CARTESIAN_POINT('',(1.306079323793,0.,-7.8536562114));
#281 = CARTESIAN_POINT('',(1.306079323793,7.8536562114,-7.8536562114));
#282 = CARTESIAN_POINT('',(1.306079323793,7.8536562114,0.));
#283 = CARTESIAN_POINT('',(1.306079323793,7.8536562114,7.8536562114));
#284 = CARTESIAN_POINT('',(1.306079323793,0.,7.8536562114));
#285 = CARTESIAN_POINT('',(0.792760470461,0.,8.457786096722));
#286 = CARTESIAN_POINT('',(0.792760470461,-8.457786096722,8.457786096722
    ));
#287 = CARTESIAN_POINT('',(0.792760470461,-8.457786096722,0.));
#288 = CARTESIAN_POINT('',(0.792760470461,-8.457786096722,
    -8.457786096722));
#289 = CARTESIAN_POINT('',(0.792760470461,0.,-8.457786096722));
#290 = CARTESIAN_POINT('',(0.792760470461,8.457786096722,-8.457786096722
    ));
#291 = CARTESIAN_POINT('',(0.792760470461,8.457786096722,0.));
#292 = CARTESIAN_POINT('',(0.792760470461,8.457786096722,8.457786096722)
  );
#293 = CARTESIAN_POINT('',(0.792760470461,0.,8.457786096722));
#294 = CARTESIAN_POINT('',(0.,0.,8.457786096722));
#295 = CARTESIAN_POINT('',(0.,-8.457786096722,8.457786096722));
#296 = CARTESIAN_POINT('',(0.,-8.457786096722,0.));
#297 = CARTESIAN_POINT('',(0.,-8.457786096722,-8.457786096722));
#298 = CARTESIAN_POINT('',(0.,0.,-8.457786096722));
#299 = CARTESIAN_POINT('',(0.,8.457786096722,-8.457786096722));
#300 = CARTESIAN_POINT('',(0.,8.457786096722,0.));
#301 = CARTESIAN_POINT('',(0.,8.457786096722,8.457786096722));
#302 = CARTESIAN_POINT('',(0.,0.,8.457786096722));
#303 = CARTESIAN_POINT('',(-0.792760470461,0.,8.457786096722));
#304 = CARTESIAN_POINT('',(-0.792760470461,-8.457786096722,
    8.457786096722));
#305 = CARTESIAN_POINT('',(-0.792760470461,-8.457786096722,0.));
#306 = CARTESIAN_POINT('',(-0.792760470461,-8.457786096722,
    -8.457786096722));
#307 = CARTESIAN_POINT('',(-0.792760470461,0.,-8.457786096722));
#308 = CARTESIAN_POINT('',(-0.792760470461,8.457786096722,
    -8.457786096722));
#309 = CARTESIAN_POINT('',(-0.792760470461,8.457786096722,0.));
#310 = CARTESIAN_POINT('',(-0.792760470461,8.457786096722,8.457786096722
    ));
#311 = CARTESIAN_POINT('',(-0.792760470461,0.,8.457786096722));
#312 = CARTESIAN_POINT('',(-1.306079323793,0.,7.8536562114));
#313 = CARTESIAN_POINT('',(-1.306079323793,-7.8536562114,7.8536562114));
#314 = CARTESIAN_POINT('',(-1.306079323793,-7.8536562114,0.));
#315 = CARTESIAN_POINT('',(-1.306079323793,-7.8536562114,-7.8536562114)
  );
#316 = CARTESIAN_POINT('',(-1.306079323793,0.,-7.8536562114));
#317 = CARTESIAN_POINT('',(-1.306079323793,7.8536562114,-7.8536562114));
#318 = CARTESIAN_POINT('',(-1.306079323793,7.8536562114,0.));
#319 = CARTESIAN_POINT('',(-1.306079323793,7.8536562114,7.8536562114));
#320 = CARTESIAN_POINT('',(-1.306079323793,0.,7.8536562114));
#321 = ( GEOMETRIC_REPRESENTATION_CONTEXT(3) 
GLOBAL_UNCERTAINTY_ASSIGNED_CONTEXT((#325)) GLOBAL_UNIT_ASSIGNED_CONTEXT
((#322,#323,#324)) REPRESENTATION_CONTEXT('Context #1',
  '3D Context with UNIT and UNCERTAINTY') );
#322 = ( LENGTH_UNIT() NAMED_UNIT(*) SI_UNIT(.MILLI.,.METRE.) );
#323 = ( NAMED_UNIT(*) PLANE_ANGLE_UNIT() SI_UNIT($,.RADIAN.) );
#324 = ( NAMED_UNIT(*) SI_UNIT($,.STERADIAN.) SOLID_ANGLE_UNIT() );
#325 = UNCERTAINTY_MEASURE_WITH_UNIT(LENGTH_MEASURE(1.E-07),#322,
  'distance_accuracy_value','confusion accuracy');
#326 = PRODUCT_RELATED_PRODUCT_CATEGORY('part',$,(#7));
ENDSEC;
END-ISO-10303-21;
