ISO-10303-21;
HEADER;
FILE_DESCRIPTION(('FreeCAD Model'),'2;1');
FILE_NAME('Open CASCADE Shape Model','2025-05-03T20:43:26',('FreeCAD'),(
    'FreeCAD'),'Open CASCADE STEP processor 7.6','FreeCAD','Unknown');
FILE_SCHEMA(('AUTOMOTIVE_DESIGN { 1 0 10303 214 1 1 1 1 }'));
ENDSEC;
DATA;
#1 = APPLICATION_PROTOCOL_DEFINITION('international standard',
  'automotive_design',2000,#2);
#2 = APPLICATION_CONTEXT(
  'core data for automotive mechanical design processes');
#3 = SHAPE_DEFINITION_REPRESENTATION(#4,#10);
#4 = PRODUCT_DEFINITION_SHAPE('','',#5);
#5 = PRODUCT_DEFINITION('design','',#6,#9);
#6 = PRODUCT_DEFINITION_FORMATION('','',#7);
#7 = PRODUCT('Open CASCADE STEP translator 7.6 1',
  'Open CASCADE STEP translator 7.6 1','',(#8));
#8 = PRODUCT_CONTEXT('',#2,'mechanical');
#9 = PRODUCT_DEFINITION_CONTEXT('part definition',#2,'design');
#10 = ADVANCED_BREP_SHAPE_REPRESENTATION('',(#11,#15),#108);
#11 = AXIS2_PLACEMENT_3D('',#12,#13,#14);
#12 = CARTESIAN_POINT('',(0.,0.,0.));
#13 = DIRECTION('',(0.,0.,1.));
#14 = DIRECTION('',(1.,0.,-0.));
#15 = MANIFOLD_SOLID_BREP('',#16);
#16 = CLOSED_SHELL('',(#17));
#17 = ADVANCED_FACE('',(#18),#44,.T.);
#18 = FACE_BOUND('',#19,.T.);
#19 = EDGE_LOOP('',(#20,#32,#42,#43));
#20 = ORIENTED_EDGE('',*,*,#21,.F.);
#21 = EDGE_CURVE('',#22,#22,#24,.T.);
#22 = VERTEX_POINT('',#23);
#23 = CARTESIAN_POINT('',(16.002616249648,-1.959755276811E-15,
    1.600261624965));
#24 = ( BOUNDED_CURVE() B_SPLINE_CURVE(2,(#25,#26,#27,#28,#29,#30,#31),
.UNSPECIFIED.,.T.,.F.) B_SPLINE_CURVE_WITH_KNOTS((3,2,2,3),(
    3.14159265359,5.235987755983,7.330382858376,9.424777960769),
.PIECEWISE_BEZIER_KNOTS.) CURVE() GEOMETRIC_REPRESENTATION_ITEM() 
RATIONAL_B_SPLINE_CURVE((1.,0.5,1.,0.5,1.,0.5,1.)) REPRESENTATION_ITEM(
  '') );
#25 = CARTESIAN_POINT('',(16.002616249648,-1.959755276811E-15,
    1.600261624965));
#26 = CARTESIAN_POINT('',(16.002616249648,-1.959755276811E-15,
    -1.171472814877));
#27 = CARTESIAN_POINT('',(18.403008687095,-2.253718568333E-15,
    0.214394405044));
#28 = CARTESIAN_POINT('',(20.803401124543,-2.547681859855E-15,
    1.600261624965));
#29 = CARTESIAN_POINT('',(18.403008687095,-2.253718568333E-15,
    2.986128844886));
#30 = CARTESIAN_POINT('',(16.002616249648,-1.959755276811E-15,
    4.371996064807));
#31 = CARTESIAN_POINT('',(16.002616249648,-1.959755276811E-15,
    1.600261624965));
#32 = ORIENTED_EDGE('',*,*,#33,.T.);
#33 = EDGE_CURVE('',#22,#22,#34,.T.);
#34 = ( BOUNDED_CURVE() B_SPLINE_CURVE(2,(#35,#36,#37,#38,#39,#40,#41),
.UNSPECIFIED.,.T.,.F.) B_SPLINE_CURVE_WITH_KNOTS((3,2,2,3),(
    3.14159265359,5.235987755983,7.330382858376,9.424777960769),
.PIECEWISE_BEZIER_KNOTS.) CURVE() GEOMETRIC_REPRESENTATION_ITEM() 
RATIONAL_B_SPLINE_CURVE((1.,0.5,1.,0.5,1.,0.5,1.)) REPRESENTATION_ITEM(
  '') );
#35 = CARTESIAN_POINT('',(16.002616249648,-1.959755276811E-15,
    1.600261624965));
#36 = CARTESIAN_POINT('',(16.002616249648,27.717344398418,1.600261624965
    ));
#37 = CARTESIAN_POINT('',(-8.001308124824,13.858672199209,1.600261624965
    ));
#38 = CARTESIAN_POINT('',(-32.00523249929,3.626537793061E-14,
    1.600261624965));
#39 = CARTESIAN_POINT('',(-8.001308124824,-13.8586721992,1.600261624965)
  );
#40 = CARTESIAN_POINT('',(16.002616249648,-27.71734439841,1.600261624965
    ));
#41 = CARTESIAN_POINT('',(16.002616249648,-3.430562265379E-14,
    1.600261624965));
#42 = ORIENTED_EDGE('',*,*,#21,.T.);
#43 = ORIENTED_EDGE('',*,*,#33,.F.);
#44 = ( BOUNDED_SURFACE() B_SPLINE_SURFACE(2,2,(
    (#45,#46,#47,#48,#49,#50,#51)
    ,(#52,#53,#54,#55,#56,#57,#58)
    ,(#59,#60,#61,#62,#63,#64,#65)
    ,(#66,#67,#68,#69,#70,#71,#72)
    ,(#73,#74,#75,#76,#77,#78,#79)
    ,(#80,#81,#82,#83,#84,#85,#86)
    ,(#87,#88,#89,#90,#91,#92,#93)
    ,(#94,#95,#96,#97,#98,#99,#100)
    ,(#101,#102,#103,#104,#105,#106,#107
)),.UNSPECIFIED.,.T.,.T.,.F.) B_SPLINE_SURFACE_WITH_KNOTS((3,2,2,2,3),(3
    ,2,2,3),(3.14159265359,4.188790204786,6.28318530718,8.377580409573,
    9.424777960769),(-3.14159265359,-1.047197551197,1.047197551197,
3.14159265359),.UNSPECIFIED.) GEOMETRIC_REPRESENTATION_ITEM() 
RATIONAL_B_SPLINE_SURFACE((
    (0.75,0.375,0.75,0.375,0.75,0.375,0.75)
    ,(0.75,0.375,0.75,0.375,0.75,0.375,0.75)
    ,(1.,0.5,1.,0.5,1.,0.5,1.)
    ,(0.5,0.25,0.5,0.25,0.5,0.25,0.5)
    ,(1.,0.5,1.,0.5,1.,0.5,1.)
    ,(0.5,0.25,0.5,0.25,0.5,0.25,0.5)
    ,(1.,0.5,1.,0.5,1.,0.5,1.)
    ,(0.75,0.375,0.75,0.375,0.75,0.375,0.75)
,(0.75,0.375,0.75,0.375,0.75,0.375,0.75
))) REPRESENTATION_ITEM('') SURFACE() );
#45 = CARTESIAN_POINT('',(16.002616249648,-1.79063665029E-15,
    1.600261624965));
#46 = CARTESIAN_POINT('',(16.002616249648,-1.79063665029E-15,
    4.371996064807));
#47 = CARTESIAN_POINT('',(18.403008687095,-1.19375776686E-15,
    2.986128844886));
#48 = CARTESIAN_POINT('',(20.803401124543,-1.19375776686E-15,
    1.600261624965));
#49 = CARTESIAN_POINT('',(18.403008687095,-1.79063665029E-15,
    0.214394405044));
#50 = CARTESIAN_POINT('',(16.002616249648,-1.79063665029E-15,
    -1.171472814877));
#51 = CARTESIAN_POINT('',(16.002616249648,-1.79063665029E-15,
    1.600261624965));
#52 = CARTESIAN_POINT('',(16.002616249648,-9.239114799473,1.600261624965
    ));
#53 = CARTESIAN_POINT('',(16.002616249648,-9.239114799473,4.371996064807
    ));
#54 = CARTESIAN_POINT('',(18.403008687095,-10.62498201939,2.986128844886
    ));
#55 = CARTESIAN_POINT('',(20.803401124543,-12.01084923931,1.600261624965
    ));
#56 = CARTESIAN_POINT('',(18.403008687095,-10.62498201939,0.214394405044
    ));
#57 = CARTESIAN_POINT('',(16.002616249648,-9.239114799473,
    -1.171472814877));
#58 = CARTESIAN_POINT('',(16.002616249648,-9.239114799473,1.600261624965
    ));
#59 = CARTESIAN_POINT('',(8.001308124824,-13.8586721992,1.600261624965)
  );
#60 = CARTESIAN_POINT('',(8.001308124824,-13.8586721992,4.371996064807)
  );
#61 = CARTESIAN_POINT('',(9.201504343548,-15.93747302909,2.986128844886)
  );
#62 = CARTESIAN_POINT('',(10.401700562271,-18.01627385897,1.600261624965
    ));
#63 = CARTESIAN_POINT('',(9.201504343548,-15.93747302909,0.214394405044)
  );
#64 = CARTESIAN_POINT('',(8.001308124824,-13.8586721992,-1.171472814877)
  );
#65 = CARTESIAN_POINT('',(8.001308124824,-13.8586721992,1.600261624965)
  );
#66 = CARTESIAN_POINT('',(-16.00261624964,-27.71734439841,1.600261624965
    ));
#67 = CARTESIAN_POINT('',(-16.00261624964,-27.71734439841,4.371996064807
    ));
#68 = CARTESIAN_POINT('',(-18.40300868709,-31.87494605818,2.986128844886
    ));
#69 = CARTESIAN_POINT('',(-20.80340112454,-36.03254771794,1.600261624965
    ));
#70 = CARTESIAN_POINT('',(-18.40300868709,-31.87494605818,0.214394405044
    ));
#71 = CARTESIAN_POINT('',(-16.00261624964,-27.71734439841,
    -1.171472814877));
#72 = CARTESIAN_POINT('',(-16.00261624964,-27.71734439841,1.600261624965
    ));
#73 = CARTESIAN_POINT('',(-16.00261624964,0.,1.600261624965));
#74 = CARTESIAN_POINT('',(-16.00261624964,0.,4.371996064807));
#75 = CARTESIAN_POINT('',(-18.40300868709,0.,2.986128844886));
#76 = CARTESIAN_POINT('',(-20.80340112454,0.,1.600261624965));
#77 = CARTESIAN_POINT('',(-18.40300868709,0.,0.214394405044));
#78 = CARTESIAN_POINT('',(-16.00261624964,0.,-1.171472814877));
#79 = CARTESIAN_POINT('',(-16.00261624964,0.,1.600261624965));
#80 = CARTESIAN_POINT('',(-16.00261624964,27.717344398418,1.600261624965
    ));
#81 = CARTESIAN_POINT('',(-16.00261624964,27.717344398418,4.371996064807
    ));
#82 = CARTESIAN_POINT('',(-18.40300868709,31.874946058181,2.986128844886
    ));
#83 = CARTESIAN_POINT('',(-20.80340112454,36.032547717943,1.600261624965
    ));
#84 = CARTESIAN_POINT('',(-18.40300868709,31.874946058181,0.214394405044
    ));
#85 = CARTESIAN_POINT('',(-16.00261624964,27.717344398418,
    -1.171472814877));
#86 = CARTESIAN_POINT('',(-16.00261624964,27.717344398418,1.600261624965
    ));
#87 = CARTESIAN_POINT('',(8.001308124824,13.858672199209,1.600261624965)
  );
#88 = CARTESIAN_POINT('',(8.001308124824,13.858672199209,4.371996064807)
  );
#89 = CARTESIAN_POINT('',(9.201504343548,15.93747302909,2.986128844886)
  );
#90 = CARTESIAN_POINT('',(10.401700562271,18.016273858972,1.600261624965
    ));
#91 = CARTESIAN_POINT('',(9.201504343548,15.93747302909,0.214394405044)
  );
#92 = CARTESIAN_POINT('',(8.001308124824,13.858672199209,-1.171472814877
    ));
#93 = CARTESIAN_POINT('',(8.001308124824,13.858672199209,1.600261624965)
  );
#94 = CARTESIAN_POINT('',(16.002616249648,9.239114799473,1.600261624965)
  );
#95 = CARTESIAN_POINT('',(16.002616249648,9.239114799473,4.371996064807)
  );
#96 = CARTESIAN_POINT('',(18.403008687095,10.624982019394,2.986128844886
    ));
#97 = CARTESIAN_POINT('',(20.803401124543,12.010849239314,1.600261624965
    ));
#98 = CARTESIAN_POINT('',(18.403008687095,10.624982019394,0.214394405044
    ));
#99 = CARTESIAN_POINT('',(16.002616249648,9.239114799473,-1.171472814877
    ));
#100 = CARTESIAN_POINT('',(16.002616249648,9.239114799473,1.600261624965
    ));
#101 = CARTESIAN_POINT('',(16.002616249648,-1.79063665029E-15,
    1.600261624965));
#102 = CARTESIAN_POINT('',(16.002616249648,-1.79063665029E-15,
    4.371996064807));
#103 = CARTESIAN_POINT('',(18.403008687095,-1.19375776686E-15,
    2.986128844886));
#104 = CARTESIAN_POINT('',(20.803401124543,-1.19375776686E-15,
    1.600261624965));
#105 = CARTESIAN_POINT('',(18.403008687095,-1.79063665029E-15,
    0.214394405044));
#106 = CARTESIAN_POINT('',(16.002616249648,-1.79063665029E-15,
    -1.171472814877));
#107 = CARTESIAN_POINT('',(16.002616249648,-1.79063665029E-15,
    1.600261624965));
#108 = ( GEOMETRIC_REPRESENTATION_CONTEXT(3) 
GLOBAL_UNCERTAINTY_ASSIGNED_CONTEXT((#112)) GLOBAL_UNIT_ASSIGNED_CONTEXT
((#109,#110,#111)) REPRESENTATION_CONTEXT('Context #1',
  '3D Context with UNIT and UNCERTAINTY') );
#109 = ( LENGTH_UNIT() NAMED_UNIT(*) SI_UNIT(.MILLI.,.METRE.) );
#110 = ( NAMED_UNIT(*) PLANE_ANGLE_UNIT() SI_UNIT($,.RADIAN.) );
#111 = ( NAMED_UNIT(*) SI_UNIT($,.STERADIAN.) SOLID_ANGLE_UNIT() );
#112 = UNCERTAINTY_MEASURE_WITH_UNIT(LENGTH_MEASURE(1.E-07),#109,
  'distance_accuracy_value','confusion accuracy');
#113 = PRODUCT_RELATED_PRODUCT_CATEGORY('part',$,(#7));
ENDSEC;
END-ISO-10303-21;
