ISO-10303-21;
HEADER;
FILE_DESCRIPTION(('FreeCAD Model'),'2;1');
FILE_NAME('Open CASCADE Shape Model','2025-05-03T20:09:59',('FreeCAD'),(
    'FreeCAD'),'Open CASCADE STEP processor 7.6','FreeCAD','Unknown');
FILE_SCHEMA(('AUTOMOTIVE_DESIGN { 1 0 10303 214 1 1 1 1 }'));
ENDSEC;
DATA;
#1 = APPLICATION_PROTOCOL_DEFINITION('international standard',
  'automotive_design',2000,#2);
#2 = APPLICATION_CONTEXT(
  'core data for automotive mechanical design processes');
#3 = SHAPE_DEFINITION_REPRESENTATION(#4,#10);
#4 = PRODUCT_DEFINITION_SHAPE('','',#5);
#5 = PRODUCT_DEFINITION('design','',#6,#9);
#6 = PRODUCT_DEFINITION_FORMATION('','',#7);
#7 = PRODUCT('Open CASCADE STEP translator 7.6 1',
  'Open CASCADE STEP translator 7.6 1','',(#8));
#8 = PRODUCT_CONTEXT('',#2,'mechanical');
#9 = PRODUCT_DEFINITION_CONTEXT('part definition',#2,'design');
#10 = ADVANCED_BREP_SHAPE_REPRESENTATION('',(#11,#15),#377);
#11 = AXIS2_PLACEMENT_3D('',#12,#13,#14);
#12 = CARTESIAN_POINT('',(0.,0.,0.));
#13 = DIRECTION('',(0.,0.,1.));
#14 = DIRECTION('',(1.,0.,-0.));
#15 = MANIFOLD_SOLID_BREP('',#16);
#16 = CLOSED_SHELL('',(#17,#65,#101,#140,#168,#184,#209,#219,#235,#277,
    #313,#333,#353,#365));
#17 = ADVANCED_FACE('',(#18),#54,.T.);
#18 = FACE_BOUND('',#19,.T.);
#19 = EDGE_LOOP('',(#20,#32,#39,#49));
#20 = ORIENTED_EDGE('',*,*,#21,.F.);
#21 = EDGE_CURVE('',#22,#24,#26,.T.);
#22 = VERTEX_POINT('',#23);
#23 = CARTESIAN_POINT('',(22.198588720544,11.178390889349,7.519613545812
    ));
#24 = VERTEX_POINT('',#25);
#25 = CARTESIAN_POINT('',(22.198588720544,11.178390889349,2.86195067525)
  );
#26 = ( BOUNDED_CURVE() B_SPLINE_CURVE(2,(#27,#28,#29,#30,#31),
.UNSPECIFIED.,.F.,.F.) B_SPLINE_CURVE_WITH_KNOTS((3,2,3),(0.,
1.570796326795,3.14159265359),.PIECEWISE_BEZIER_KNOTS.) CURVE() 
GEOMETRIC_REPRESENTATION_ITEM() RATIONAL_B_SPLINE_CURVE((1.,
0.707106781187,1.,0.707106781187,1.)) REPRESENTATION_ITEM('') );
#27 = CARTESIAN_POINT('',(22.198588720544,11.178390889349,7.519613545812
    ));
#28 = CARTESIAN_POINT('',(24.527420155825,11.178390889349,7.519613545812
    ));
#29 = CARTESIAN_POINT('',(24.527420155825,11.178390889349,5.190782110531
    ));
#30 = CARTESIAN_POINT('',(24.527420155825,11.178390889349,2.86195067525)
  );
#31 = CARTESIAN_POINT('',(22.198588720544,11.178390889349,2.86195067525)
  );
#32 = ORIENTED_EDGE('',*,*,#33,.T.);
#33 = EDGE_CURVE('',#22,#34,#36,.T.);
#34 = VERTEX_POINT('',#35);
#35 = CARTESIAN_POINT('',(22.198588720544,9.315325741124,7.519613545812)
  );
#36 = B_SPLINE_CURVE_WITH_KNOTS('',1,(#37,#38),.UNSPECIFIED.,.F.,.F.,(2,
    2),(-0.,2.),.PIECEWISE_BEZIER_KNOTS.);
#37 = CARTESIAN_POINT('',(22.198588720544,11.178390889349,7.519613545812
    ));
#38 = CARTESIAN_POINT('',(22.198588720544,9.315325741124,7.519613545812)
  );
#39 = ORIENTED_EDGE('',*,*,#40,.T.);
#40 = EDGE_CURVE('',#34,#41,#43,.T.);
#41 = VERTEX_POINT('',#42);
#42 = CARTESIAN_POINT('',(22.198588720544,9.315325741124,2.86195067525)
  );
#43 = ( BOUNDED_CURVE() B_SPLINE_CURVE(2,(#44,#45,#46,#47,#48),
.UNSPECIFIED.,.F.,.F.) B_SPLINE_CURVE_WITH_KNOTS((3,2,3),(3.14159265359,
4.712388980385,6.28318530718),.PIECEWISE_BEZIER_KNOTS.) CURVE() 
GEOMETRIC_REPRESENTATION_ITEM() RATIONAL_B_SPLINE_CURVE((1.,
0.707106781187,1.,0.707106781187,1.)) REPRESENTATION_ITEM('') );
#44 = CARTESIAN_POINT('',(22.198588720544,9.315325741124,7.519613545812)
  );
#45 = CARTESIAN_POINT('',(24.527420155825,9.315325741124,7.519613545812)
  );
#46 = CARTESIAN_POINT('',(24.527420155825,9.315325741124,5.190782110531)
  );
#47 = CARTESIAN_POINT('',(24.527420155825,9.315325741124,2.86195067525)
  );
#48 = CARTESIAN_POINT('',(22.198588720544,9.315325741124,2.86195067525)
  );
#49 = ORIENTED_EDGE('',*,*,#50,.F.);
#50 = EDGE_CURVE('',#24,#41,#51,.T.);
#51 = B_SPLINE_CURVE_WITH_KNOTS('',1,(#52,#53),.UNSPECIFIED.,.F.,.F.,(2,
    2),(-0.,2.),.PIECEWISE_BEZIER_KNOTS.);
#52 = CARTESIAN_POINT('',(22.198588720544,11.178390889349,2.86195067525)
  );
#53 = CARTESIAN_POINT('',(22.198588720544,9.315325741124,2.86195067525)
  );
#54 = ( BOUNDED_SURFACE() B_SPLINE_SURFACE(2,1,(
    (#55,#56)
    ,(#57,#58)
    ,(#59,#60)
    ,(#61,#62)
,(#63,#64
    )),.UNSPECIFIED.,.F.,.F.,.F.) B_SPLINE_SURFACE_WITH_KNOTS((3,2,3),(2
    ,2),(0.,1.570796326795,3.14159265359),(0.,2.),
.PIECEWISE_BEZIER_KNOTS.) GEOMETRIC_REPRESENTATION_ITEM() 
RATIONAL_B_SPLINE_SURFACE((
    (1.,1.)
    ,(0.707106781187,0.707106781187)
    ,(1.,1.)
    ,(0.707106781187,0.707106781187)
,(1.,1.))) REPRESENTATION_ITEM('') SURFACE() );
#55 = CARTESIAN_POINT('',(22.198588720544,11.178390889349,2.86195067525)
  );
#56 = CARTESIAN_POINT('',(22.198588720544,9.315325741124,2.86195067525)
  );
#57 = CARTESIAN_POINT('',(24.527420155825,11.178390889349,2.86195067525)
  );
#58 = CARTESIAN_POINT('',(24.527420155825,9.315325741124,2.86195067525)
  );
#59 = CARTESIAN_POINT('',(24.527420155825,11.178390889349,5.190782110531
    ));
#60 = CARTESIAN_POINT('',(24.527420155825,9.315325741124,5.190782110531)
  );
#61 = CARTESIAN_POINT('',(24.527420155825,11.178390889349,7.519613545812
    ));
#62 = CARTESIAN_POINT('',(24.527420155825,9.315325741124,7.519613545812)
  );
#63 = CARTESIAN_POINT('',(22.198588720544,11.178390889349,7.519613545812
    ));
#64 = CARTESIAN_POINT('',(22.198588720544,9.315325741124,7.519613545812)
  );
#65 = ADVANCED_FACE('',(#66),#96,.T.);
#66 = FACE_BOUND('',#67,.T.);
#67 = EDGE_LOOP('',(#68,#77,#84,#91));
#68 = ORIENTED_EDGE('',*,*,#69,.F.);
#69 = EDGE_CURVE('',#70,#72,#74,.T.);
#70 = VERTEX_POINT('',#71);
#71 = CARTESIAN_POINT('',(17.540925849981,4.657662870562,9.848444981093)
  );
#72 = VERTEX_POINT('',#73);
#73 = CARTESIAN_POINT('',(17.540925849981,4.657662870562,0.533119239968)
  );
#74 = B_SPLINE_CURVE_WITH_KNOTS('',1,(#75,#76),.UNSPECIFIED.,.F.,.F.,(2,
    2),(-10.,-0.),.PIECEWISE_BEZIER_KNOTS.);
#75 = CARTESIAN_POINT('',(17.540925849981,4.657662870562,9.848444981093)
  );
#76 = CARTESIAN_POINT('',(17.540925849981,4.657662870562,0.533119239968)
  );
#77 = ORIENTED_EDGE('',*,*,#78,.F.);
#78 = EDGE_CURVE('',#79,#70,#81,.T.);
#79 = VERTEX_POINT('',#80);
#80 = CARTESIAN_POINT('',(17.540925849981,9.315325741124,9.848444981093)
  );
#81 = B_SPLINE_CURVE_WITH_KNOTS('',1,(#82,#83),.UNSPECIFIED.,.F.,.F.,(2,
    2),(10.,15.),.PIECEWISE_BEZIER_KNOTS.);
#82 = CARTESIAN_POINT('',(17.540925849981,9.315325741124,9.848444981093)
  );
#83 = CARTESIAN_POINT('',(17.540925849981,4.657662870562,9.848444981093)
  );
#84 = ORIENTED_EDGE('',*,*,#85,.T.);
#85 = EDGE_CURVE('',#79,#86,#88,.T.);
#86 = VERTEX_POINT('',#87);
#87 = CARTESIAN_POINT('',(17.540925849981,9.315325741124,0.533119239968)
  );
#88 = B_SPLINE_CURVE_WITH_KNOTS('',1,(#89,#90),.UNSPECIFIED.,.F.,.F.,(2,
    2),(-10.57230337916,-0.572303379167),.PIECEWISE_BEZIER_KNOTS.);
#89 = CARTESIAN_POINT('',(17.540925849981,9.315325741124,9.848444981093)
  );
#90 = CARTESIAN_POINT('',(17.540925849981,9.315325741124,0.533119239968)
  );
#91 = ORIENTED_EDGE('',*,*,#92,.T.);
#92 = EDGE_CURVE('',#86,#72,#93,.T.);
#93 = B_SPLINE_CURVE_WITH_KNOTS('',1,(#94,#95),.UNSPECIFIED.,.F.,.F.,(2,
    2),(10.,15.),.PIECEWISE_BEZIER_KNOTS.);
#94 = CARTESIAN_POINT('',(17.540925849981,9.315325741124,0.533119239968)
  );
#95 = CARTESIAN_POINT('',(17.540925849981,4.657662870562,0.533119239968)
  );
#96 = B_SPLINE_SURFACE_WITH_KNOTS('',1,1,(
    (#97,#98)
    ,(#99,#100
    )),.UNSPECIFIED.,.F.,.F.,.F.,(2,2),(2,2),(0.,10.),(-15.,-10.),
  .PIECEWISE_BEZIER_KNOTS.);
#97 = CARTESIAN_POINT('',(17.540925849981,4.657662870562,0.533119239968)
  );
#98 = CARTESIAN_POINT('',(17.540925849981,9.315325741124,0.533119239968)
  );
#99 = CARTESIAN_POINT('',(17.540925849981,4.657662870562,9.848444981093)
  );
#100 = CARTESIAN_POINT('',(17.540925849981,9.315325741124,9.848444981093
    ));
#101 = ADVANCED_FACE('',(#102,#113),#135,.F.);
#102 = FACE_BOUND('',#103,.T.);
#103 = EDGE_LOOP('',(#104,#112));
#104 = ORIENTED_EDGE('',*,*,#105,.F.);
#105 = EDGE_CURVE('',#41,#34,#106,.T.);
#106 = ( BOUNDED_CURVE() B_SPLINE_CURVE(2,(#107,#108,#109,#110,#111),
.UNSPECIFIED.,.F.,.F.) B_SPLINE_CURVE_WITH_KNOTS((3,2,3),(0.,
1.570796326795,3.14159265359),.PIECEWISE_BEZIER_KNOTS.) CURVE() 
GEOMETRIC_REPRESENTATION_ITEM() RATIONAL_B_SPLINE_CURVE((1.,
0.707106781187,1.,0.707106781187,1.)) REPRESENTATION_ITEM('') );
#107 = CARTESIAN_POINT('',(22.198588720544,9.315325741124,2.86195067525)
  );
#108 = CARTESIAN_POINT('',(19.869757285263,9.315325741124,2.86195067525)
  );
#109 = CARTESIAN_POINT('',(19.869757285263,9.315325741124,5.190782110531
    ));
#110 = CARTESIAN_POINT('',(19.869757285263,9.315325741124,7.519613545812
    ));
#111 = CARTESIAN_POINT('',(22.198588720544,9.315325741124,7.519613545812
    ));
#112 = ORIENTED_EDGE('',*,*,#40,.F.);
#113 = FACE_BOUND('',#114,.T.);
#114 = EDGE_LOOP('',(#115,#122,#129,#134));
#115 = ORIENTED_EDGE('',*,*,#116,.F.);
#116 = EDGE_CURVE('',#117,#79,#119,.T.);
#117 = VERTEX_POINT('',#118);
#118 = CARTESIAN_POINT('',(26.856251591106,9.315325741124,9.848444981093
    ));
#119 = B_SPLINE_CURVE_WITH_KNOTS('',1,(#120,#121),.UNSPECIFIED.,.F.,.F.,
  (2,2),(-28.83017978914,-18.83017978914),.PIECEWISE_BEZIER_KNOTS.);
#120 = CARTESIAN_POINT('',(26.856251591106,9.315325741124,9.848444981093
    ));
#121 = CARTESIAN_POINT('',(17.540925849981,9.315325741124,9.848444981093
    ));
#122 = ORIENTED_EDGE('',*,*,#123,.F.);
#123 = EDGE_CURVE('',#124,#117,#126,.T.);
#124 = VERTEX_POINT('',#125);
#125 = CARTESIAN_POINT('',(26.856251591106,9.315325741124,0.533119239968
    ));
#126 = B_SPLINE_CURVE_WITH_KNOTS('',1,(#127,#128),.UNSPECIFIED.,.F.,.F.,
  (2,2),(0.,10.),.PIECEWISE_BEZIER_KNOTS.);
#127 = CARTESIAN_POINT('',(26.856251591106,9.315325741124,0.533119239968
    ));
#128 = CARTESIAN_POINT('',(26.856251591106,9.315325741124,9.848444981093
    ));
#129 = ORIENTED_EDGE('',*,*,#130,.F.);
#130 = EDGE_CURVE('',#86,#124,#131,.T.);
#131 = B_SPLINE_CURVE_WITH_KNOTS('',1,(#132,#133),.UNSPECIFIED.,.F.,.F.,
  (2,2),(30.,40.),.PIECEWISE_BEZIER_KNOTS.);
#132 = CARTESIAN_POINT('',(17.540925849981,9.315325741124,0.533119239968
    ));
#133 = CARTESIAN_POINT('',(26.856251591106,9.315325741124,0.533119239968
    ));
#134 = ORIENTED_EDGE('',*,*,#85,.F.);
#135 = B_SPLINE_SURFACE_WITH_KNOTS('',1,1,(
    (#136,#137)
    ,(#138,#139
    )),.UNSPECIFIED.,.F.,.F.,.F.,(2,2),(2,2),(-10.57230337916,
    -0.572303379167),(18.830179789144,28.830179789144),
  .PIECEWISE_BEZIER_KNOTS.);
#136 = CARTESIAN_POINT('',(17.540925849981,9.315325741124,9.848444981093
    ));
#137 = CARTESIAN_POINT('',(26.856251591106,9.315325741124,9.848444981093
    ));
#138 = CARTESIAN_POINT('',(17.540925849981,9.315325741124,0.533119239968
    ));
#139 = CARTESIAN_POINT('',(26.856251591106,9.315325741124,0.533119239968
    ));
#140 = ADVANCED_FACE('',(#141),#163,.T.);
#141 = FACE_BOUND('',#142,.T.);
#142 = EDGE_LOOP('',(#143,#152,#157,#158));
#143 = ORIENTED_EDGE('',*,*,#144,.T.);
#144 = EDGE_CURVE('',#145,#147,#149,.T.);
#145 = VERTEX_POINT('',#146);
#146 = CARTESIAN_POINT('',(26.856251591106,4.657662870562,9.848444981093
    ));
#147 = VERTEX_POINT('',#148);
#148 = CARTESIAN_POINT('',(26.856251591106,4.657662870562,0.533119239968
    ));
#149 = B_SPLINE_CURVE_WITH_KNOTS('',1,(#150,#151),.UNSPECIFIED.,.F.,.F.,
  (2,2),(-10.,-0.),.PIECEWISE_BEZIER_KNOTS.);
#150 = CARTESIAN_POINT('',(26.856251591106,4.657662870562,9.848444981093
    ));
#151 = CARTESIAN_POINT('',(26.856251591106,4.657662870562,0.533119239968
    ));
#152 = ORIENTED_EDGE('',*,*,#153,.F.);
#153 = EDGE_CURVE('',#124,#147,#154,.T.);
#154 = B_SPLINE_CURVE_WITH_KNOTS('',1,(#155,#156),.UNSPECIFIED.,.F.,.F.,
  (2,2),(-0.,5.),.PIECEWISE_BEZIER_KNOTS.);
#155 = CARTESIAN_POINT('',(26.856251591106,9.315325741124,0.533119239968
    ));
#156 = CARTESIAN_POINT('',(26.856251591106,4.657662870562,0.533119239968
    ));
#157 = ORIENTED_EDGE('',*,*,#123,.T.);
#158 = ORIENTED_EDGE('',*,*,#159,.T.);
#159 = EDGE_CURVE('',#117,#145,#160,.T.);
#160 = B_SPLINE_CURVE_WITH_KNOTS('',1,(#161,#162),.UNSPECIFIED.,.F.,.F.,
  (2,2),(10.,15.),.PIECEWISE_BEZIER_KNOTS.);
#161 = CARTESIAN_POINT('',(26.856251591106,9.315325741124,9.848444981093
    ));
#162 = CARTESIAN_POINT('',(26.856251591106,4.657662870562,9.848444981093
    ));
#163 = B_SPLINE_SURFACE_WITH_KNOTS('',1,1,(
    (#164,#165)
    ,(#166,#167
    )),.UNSPECIFIED.,.F.,.F.,.F.,(2,2),(2,2),(-10.,0.),(-5.,0.),
  .PIECEWISE_BEZIER_KNOTS.);
#164 = CARTESIAN_POINT('',(26.856251591106,4.657662870562,9.848444981093
    ));
#165 = CARTESIAN_POINT('',(26.856251591106,9.315325741124,9.848444981093
    ));
#166 = CARTESIAN_POINT('',(26.856251591106,4.657662870562,0.533119239968
    ));
#167 = CARTESIAN_POINT('',(26.856251591106,9.315325741124,0.533119239968
    ));
#168 = ADVANCED_FACE('',(#169),#179,.T.);
#169 = FACE_BOUND('',#170,.T.);
#170 = EDGE_LOOP('',(#171,#176,#177,#178));
#171 = ORIENTED_EDGE('',*,*,#172,.T.);
#172 = EDGE_CURVE('',#147,#72,#173,.T.);
#173 = B_SPLINE_CURVE_WITH_KNOTS('',1,(#174,#175),.UNSPECIFIED.,.F.,.F.,
  (2,2),(-0.,10.),.PIECEWISE_BEZIER_KNOTS.);
#174 = CARTESIAN_POINT('',(26.856251591106,4.657662870562,0.533119239968
    ));
#175 = CARTESIAN_POINT('',(17.540925849981,4.657662870562,0.533119239968
    ));
#176 = ORIENTED_EDGE('',*,*,#92,.F.);
#177 = ORIENTED_EDGE('',*,*,#130,.T.);
#178 = ORIENTED_EDGE('',*,*,#153,.T.);
#179 = B_SPLINE_SURFACE_WITH_KNOTS('',1,1,(
    (#180,#181)
    ,(#182,#183
    )),.UNSPECIFIED.,.F.,.F.,.F.,(2,2),(2,2),(-40.,-30.),(-5.,0.),
  .PIECEWISE_BEZIER_KNOTS.);
#180 = CARTESIAN_POINT('',(26.856251591106,4.657662870562,0.533119239968
    ));
#181 = CARTESIAN_POINT('',(26.856251591106,9.315325741124,0.533119239968
    ));
#182 = CARTESIAN_POINT('',(17.540925849981,4.657662870562,0.533119239968
    ));
#183 = CARTESIAN_POINT('',(17.540925849981,9.315325741124,0.533119239968
    ));
#184 = ADVANCED_FACE('',(#185),#198,.T.);
#185 = FACE_BOUND('',#186,.T.);
#186 = EDGE_LOOP('',(#187,#188,#196,#197));
#187 = ORIENTED_EDGE('',*,*,#33,.F.);
#188 = ORIENTED_EDGE('',*,*,#189,.F.);
#189 = EDGE_CURVE('',#24,#22,#190,.T.);
#190 = ( BOUNDED_CURVE() B_SPLINE_CURVE(2,(#191,#192,#193,#194,#195),
.UNSPECIFIED.,.F.,.F.) B_SPLINE_CURVE_WITH_KNOTS((3,2,3),(3.14159265359,
4.712388980385,6.28318530718),.PIECEWISE_BEZIER_KNOTS.) CURVE() 
GEOMETRIC_REPRESENTATION_ITEM() RATIONAL_B_SPLINE_CURVE((1.,
0.707106781187,1.,0.707106781187,1.)) REPRESENTATION_ITEM('') );
#191 = CARTESIAN_POINT('',(22.198588720544,11.178390889349,2.86195067525
    ));
#192 = CARTESIAN_POINT('',(19.869757285263,11.178390889349,2.86195067525
    ));
#193 = CARTESIAN_POINT('',(19.869757285263,11.178390889349,
    5.190782110531));
#194 = CARTESIAN_POINT('',(19.869757285263,11.178390889349,
    7.519613545812));
#195 = CARTESIAN_POINT('',(22.198588720544,11.178390889349,
    7.519613545812));
#196 = ORIENTED_EDGE('',*,*,#50,.T.);
#197 = ORIENTED_EDGE('',*,*,#105,.T.);
#198 = ( BOUNDED_SURFACE() B_SPLINE_SURFACE(2,1,(
    (#199,#200)
    ,(#201,#202)
    ,(#203,#204)
    ,(#205,#206)
,(#207,#208
    )),.UNSPECIFIED.,.F.,.F.,.F.) B_SPLINE_SURFACE_WITH_KNOTS((3,2,3),(2
    ,2),(3.14159265359,4.712388980385,6.28318530718),(0.,2.),
.PIECEWISE_BEZIER_KNOTS.) GEOMETRIC_REPRESENTATION_ITEM() 
RATIONAL_B_SPLINE_SURFACE((
    (1.,1.)
    ,(0.707106781187,0.707106781187)
    ,(1.,1.)
    ,(0.707106781187,0.707106781187)
,(1.,1.))) REPRESENTATION_ITEM('') SURFACE() );
#199 = CARTESIAN_POINT('',(22.198588720544,11.178390889349,
    7.519613545812));
#200 = CARTESIAN_POINT('',(22.198588720544,9.315325741124,7.519613545812
    ));
#201 = CARTESIAN_POINT('',(19.869757285263,11.178390889349,
    7.519613545812));
#202 = CARTESIAN_POINT('',(19.869757285263,9.315325741124,7.519613545812
    ));
#203 = CARTESIAN_POINT('',(19.869757285263,11.178390889349,
    5.190782110531));
#204 = CARTESIAN_POINT('',(19.869757285263,9.315325741124,5.190782110531
    ));
#205 = CARTESIAN_POINT('',(19.869757285263,11.178390889349,2.86195067525
    ));
#206 = CARTESIAN_POINT('',(19.869757285263,9.315325741124,2.86195067525)
  );
#207 = CARTESIAN_POINT('',(22.198588720544,11.178390889349,2.86195067525
    ));
#208 = CARTESIAN_POINT('',(22.198588720544,9.315325741124,2.86195067525)
  );
#209 = ADVANCED_FACE('',(#210),#214,.T.);
#210 = FACE_BOUND('',#211,.T.);
#211 = EDGE_LOOP('',(#212,#213));
#212 = ORIENTED_EDGE('',*,*,#189,.T.);
#213 = ORIENTED_EDGE('',*,*,#21,.T.);
#214 = B_SPLINE_SURFACE_WITH_KNOTS('',1,1,(
    (#215,#216)
    ,(#217,#218
    )),.UNSPECIFIED.,.F.,.F.,.F.,(2,2),(2,2),(-2.5,2.5),(-2.5,2.5),
  .PIECEWISE_BEZIER_KNOTS.);
#215 = CARTESIAN_POINT('',(19.869757285263,11.178390889349,2.86195067525
    ));
#216 = CARTESIAN_POINT('',(24.527420155825,11.178390889349,2.86195067525
    ));
#217 = CARTESIAN_POINT('',(19.869757285263,11.178390889349,
    7.519613545812));
#218 = CARTESIAN_POINT('',(24.527420155825,11.178390889349,
    7.519613545812));
#219 = ADVANCED_FACE('',(#220),#230,.T.);
#220 = FACE_BOUND('',#221,.T.);
#221 = EDGE_LOOP('',(#222,#227,#228,#229));
#222 = ORIENTED_EDGE('',*,*,#223,.F.);
#223 = EDGE_CURVE('',#145,#70,#224,.T.);
#224 = B_SPLINE_CURVE_WITH_KNOTS('',1,(#225,#226),.UNSPECIFIED.,.F.,.F.,
  (2,2),(0.,10.),.PIECEWISE_BEZIER_KNOTS.);
#225 = CARTESIAN_POINT('',(26.856251591106,4.657662870562,9.848444981093
    ));
#226 = CARTESIAN_POINT('',(17.540925849981,4.657662870562,9.848444981093
    ));
#227 = ORIENTED_EDGE('',*,*,#159,.F.);
#228 = ORIENTED_EDGE('',*,*,#116,.T.);
#229 = ORIENTED_EDGE('',*,*,#78,.T.);
#230 = B_SPLINE_SURFACE_WITH_KNOTS('',1,1,(
    (#231,#232)
    ,(#233,#234
    )),.UNSPECIFIED.,.F.,.F.,.F.,(2,2),(2,2),(0.,10.),(-15.,-10.),
  .PIECEWISE_BEZIER_KNOTS.);
#231 = CARTESIAN_POINT('',(17.540925849981,4.657662870562,9.848444981093
    ));
#232 = CARTESIAN_POINT('',(17.540925849981,9.315325741124,9.848444981093
    ));
#233 = CARTESIAN_POINT('',(26.856251591106,4.657662870562,9.848444981093
    ));
#234 = CARTESIAN_POINT('',(26.856251591106,9.315325741124,9.848444981093
    ));
#235 = ADVANCED_FACE('',(#236,#242),#272,.F.);
#236 = FACE_BOUND('',#237,.T.);
#237 = EDGE_LOOP('',(#238,#239,#240,#241));
#238 = ORIENTED_EDGE('',*,*,#69,.T.);
#239 = ORIENTED_EDGE('',*,*,#172,.F.);
#240 = ORIENTED_EDGE('',*,*,#144,.F.);
#241 = ORIENTED_EDGE('',*,*,#223,.T.);
#242 = FACE_BOUND('',#243,.T.);
#243 = EDGE_LOOP('',(#244,#253,#260,#267));
#244 = ORIENTED_EDGE('',*,*,#245,.F.);
#245 = EDGE_CURVE('',#246,#248,#250,.T.);
#246 = VERTEX_POINT('',#247);
#247 = CARTESIAN_POINT('',(19.869757285263,4.657662870562,7.519613545812
    ));
#248 = VERTEX_POINT('',#249);
#249 = CARTESIAN_POINT('',(19.869757285263,4.657662870562,2.86195067525)
  );
#250 = B_SPLINE_CURVE_WITH_KNOTS('',1,(#251,#252),.UNSPECIFIED.,.F.,.F.,
  (2,2),(10.,15.),.PIECEWISE_BEZIER_KNOTS.);
#251 = CARTESIAN_POINT('',(19.869757285263,4.657662870562,7.519613545812
    ));
#252 = CARTESIAN_POINT('',(19.869757285263,4.657662870562,2.86195067525)
  );
#253 = ORIENTED_EDGE('',*,*,#254,.F.);
#254 = EDGE_CURVE('',#255,#246,#257,.T.);
#255 = VERTEX_POINT('',#256);
#256 = CARTESIAN_POINT('',(24.527420155825,4.657662870562,7.519613545812
    ));
#257 = B_SPLINE_CURVE_WITH_KNOTS('',1,(#258,#259),.UNSPECIFIED.,.F.,.F.,
  (2,2),(-5.,0.),.PIECEWISE_BEZIER_KNOTS.);
#258 = CARTESIAN_POINT('',(24.527420155825,4.657662870562,7.519613545812
    ));
#259 = CARTESIAN_POINT('',(19.869757285263,4.657662870562,7.519613545812
    ));
#260 = ORIENTED_EDGE('',*,*,#261,.F.);
#261 = EDGE_CURVE('',#262,#255,#264,.T.);
#262 = VERTEX_POINT('',#263);
#263 = CARTESIAN_POINT('',(24.527420155825,4.657662870562,2.86195067525)
  );
#264 = B_SPLINE_CURVE_WITH_KNOTS('',1,(#265,#266),.UNSPECIFIED.,.F.,.F.,
  (2,2),(0.,5.),.PIECEWISE_BEZIER_KNOTS.);
#265 = CARTESIAN_POINT('',(24.527420155825,4.657662870562,2.86195067525)
  );
#266 = CARTESIAN_POINT('',(24.527420155825,4.657662870562,7.519613545812
    ));
#267 = ORIENTED_EDGE('',*,*,#268,.F.);
#268 = EDGE_CURVE('',#248,#262,#269,.T.);
#269 = B_SPLINE_CURVE_WITH_KNOTS('',1,(#270,#271),.UNSPECIFIED.,.F.,.F.,
  (2,2),(30.,35.),.PIECEWISE_BEZIER_KNOTS.);
#270 = CARTESIAN_POINT('',(19.869757285263,4.657662870562,2.86195067525)
  );
#271 = CARTESIAN_POINT('',(24.527420155825,4.657662870562,2.86195067525)
  );
#272 = B_SPLINE_SURFACE_WITH_KNOTS('',1,1,(
    (#273,#274)
    ,(#275,#276
    )),.UNSPECIFIED.,.F.,.F.,.F.,(2,2),(2,2),(0.,10.),(-10.,0.),
  .PIECEWISE_BEZIER_KNOTS.);
#273 = CARTESIAN_POINT('',(17.540925849981,4.657662870562,0.533119239968
    ));
#274 = CARTESIAN_POINT('',(26.856251591106,4.657662870562,0.533119239968
    ));
#275 = CARTESIAN_POINT('',(17.540925849981,4.657662870562,9.848444981093
    ));
#276 = CARTESIAN_POINT('',(26.856251591106,4.657662870562,9.848444981093
    ));
#277 = ADVANCED_FACE('',(#278),#308,.T.);
#278 = FACE_BOUND('',#279,.T.);
#279 = EDGE_LOOP('',(#280,#289,#296,#303));
#280 = ORIENTED_EDGE('',*,*,#281,.F.);
#281 = EDGE_CURVE('',#282,#284,#286,.T.);
#282 = VERTEX_POINT('',#283);
#283 = CARTESIAN_POINT('',(24.527420155825,6.986494305843,7.519613545812
    ));
#284 = VERTEX_POINT('',#285);
#285 = CARTESIAN_POINT('',(24.527420155825,6.986494305843,2.86195067525)
  );
#286 = B_SPLINE_CURVE_WITH_KNOTS('',1,(#287,#288),.UNSPECIFIED.,.F.,.F.,
  (2,2),(-5.,0.),.PIECEWISE_BEZIER_KNOTS.);
#287 = CARTESIAN_POINT('',(24.527420155825,6.986494305843,7.519613545812
    ));
#288 = CARTESIAN_POINT('',(24.527420155825,6.986494305843,2.86195067525)
  );
#289 = ORIENTED_EDGE('',*,*,#290,.F.);
#290 = EDGE_CURVE('',#291,#282,#293,.T.);
#291 = VERTEX_POINT('',#292);
#292 = CARTESIAN_POINT('',(19.869757285263,6.986494305843,7.519613545812
    ));
#293 = B_SPLINE_CURVE_WITH_KNOTS('',1,(#294,#295),.UNSPECIFIED.,.F.,.F.,
  (2,2),(0.,5.),.PIECEWISE_BEZIER_KNOTS.);
#294 = CARTESIAN_POINT('',(19.869757285263,6.986494305843,7.519613545812
    ));
#295 = CARTESIAN_POINT('',(24.527420155825,6.986494305843,7.519613545812
    ));
#296 = ORIENTED_EDGE('',*,*,#297,.F.);
#297 = EDGE_CURVE('',#298,#291,#300,.T.);
#298 = VERTEX_POINT('',#299);
#299 = CARTESIAN_POINT('',(19.869757285263,6.986494305843,2.86195067525)
  );
#300 = B_SPLINE_CURVE_WITH_KNOTS('',1,(#301,#302),.UNSPECIFIED.,.F.,.F.,
  (2,2),(-15.,-10.),.PIECEWISE_BEZIER_KNOTS.);
#301 = CARTESIAN_POINT('',(19.869757285263,6.986494305843,2.86195067525)
  );
#302 = CARTESIAN_POINT('',(19.869757285263,6.986494305843,7.519613545812
    ));
#303 = ORIENTED_EDGE('',*,*,#304,.F.);
#304 = EDGE_CURVE('',#284,#298,#305,.T.);
#305 = B_SPLINE_CURVE_WITH_KNOTS('',1,(#306,#307),.UNSPECIFIED.,.F.,.F.,
  (2,2),(-35.,-30.),.PIECEWISE_BEZIER_KNOTS.);
#306 = CARTESIAN_POINT('',(24.527420155825,6.986494305843,2.86195067525)
  );
#307 = CARTESIAN_POINT('',(19.869757285263,6.986494305843,2.86195067525)
  );
#308 = B_SPLINE_SURFACE_WITH_KNOTS('',1,1,(
    (#309,#310)
    ,(#311,#312
    )),.UNSPECIFIED.,.F.,.F.,.F.,(2,2),(2,2),(-8.072303379167,
    -3.072303379167),(21.330179789144,26.330179789144),
  .PIECEWISE_BEZIER_KNOTS.);
#309 = CARTESIAN_POINT('',(19.869757285263,6.986494305843,7.519613545812
    ));
#310 = CARTESIAN_POINT('',(24.527420155825,6.986494305843,7.519613545812
    ));
#311 = CARTESIAN_POINT('',(19.869757285263,6.986494305843,2.86195067525)
  );
#312 = CARTESIAN_POINT('',(24.527420155825,6.986494305843,2.86195067525)
  );
#313 = ADVANCED_FACE('',(#314),#328,.F.);
#314 = FACE_BOUND('',#315,.T.);
#315 = EDGE_LOOP('',(#316,#321,#322,#327));
#316 = ORIENTED_EDGE('',*,*,#317,.F.);
#317 = EDGE_CURVE('',#248,#298,#318,.T.);
#318 = B_SPLINE_CURVE_WITH_KNOTS('',1,(#319,#320),.UNSPECIFIED.,.F.,.F.,
  (2,2),(20.206906325746,22.706906325746),.PIECEWISE_BEZIER_KNOTS.);
#319 = CARTESIAN_POINT('',(19.869757285263,4.657662870562,2.86195067525)
  );
#320 = CARTESIAN_POINT('',(19.869757285263,6.986494305843,2.86195067525)
  );
#321 = ORIENTED_EDGE('',*,*,#268,.T.);
#322 = ORIENTED_EDGE('',*,*,#323,.F.);
#323 = EDGE_CURVE('',#284,#262,#324,.T.);
#324 = B_SPLINE_CURVE_WITH_KNOTS('',1,(#325,#326),.UNSPECIFIED.,.F.,.F.,
  (2,2),(40.57886552932,43.07886552932),.PIECEWISE_BEZIER_KNOTS.);
#325 = CARTESIAN_POINT('',(24.527420155825,6.986494305843,2.86195067525)
  );
#326 = CARTESIAN_POINT('',(24.527420155825,4.657662870562,2.86195067525)
  );
#327 = ORIENTED_EDGE('',*,*,#304,.T.);
#328 = B_SPLINE_SURFACE_WITH_KNOTS('',1,1,(
    (#329,#330)
    ,(#331,#332
    )),.UNSPECIFIED.,.F.,.F.,.F.,(2,2),(2,2),(-35.,-30.),(
    -43.07886552932,-40.57886552932),.PIECEWISE_BEZIER_KNOTS.);
#329 = CARTESIAN_POINT('',(24.527420155825,4.657662870562,2.86195067525)
  );
#330 = CARTESIAN_POINT('',(24.527420155825,6.986494305843,2.86195067525)
  );
#331 = CARTESIAN_POINT('',(19.869757285263,4.657662870562,2.86195067525)
  );
#332 = CARTESIAN_POINT('',(19.869757285263,6.986494305843,2.86195067525)
  );
#333 = ADVANCED_FACE('',(#334),#348,.F.);
#334 = FACE_BOUND('',#335,.T.);
#335 = EDGE_LOOP('',(#336,#341,#342,#347));
#336 = ORIENTED_EDGE('',*,*,#337,.F.);
#337 = EDGE_CURVE('',#255,#282,#338,.T.);
#338 = B_SPLINE_CURVE_WITH_KNOTS('',1,(#339,#340),.UNSPECIFIED.,.F.,.F.,
  (2,2),(10.590169943749,13.090169943749),.PIECEWISE_BEZIER_KNOTS.);
#339 = CARTESIAN_POINT('',(24.527420155825,4.657662870562,7.519613545812
    ));
#340 = CARTESIAN_POINT('',(24.527420155825,6.986494305843,7.519613545812
    ));
#341 = ORIENTED_EDGE('',*,*,#254,.T.);
#342 = ORIENTED_EDGE('',*,*,#343,.T.);
#343 = EDGE_CURVE('',#246,#291,#344,.T.);
#344 = B_SPLINE_CURVE_WITH_KNOTS('',1,(#345,#346),.UNSPECIFIED.,.F.,.F.,
  (2,2),(10.590169943749,13.090169943749),.PIECEWISE_BEZIER_KNOTS.);
#345 = CARTESIAN_POINT('',(19.869757285263,4.657662870562,7.519613545812
    ));
#346 = CARTESIAN_POINT('',(19.869757285263,6.986494305843,7.519613545812
    ));
#347 = ORIENTED_EDGE('',*,*,#290,.T.);
#348 = B_SPLINE_SURFACE_WITH_KNOTS('',1,1,(
    (#349,#350)
    ,(#351,#352
    )),.UNSPECIFIED.,.F.,.F.,.F.,(2,2),(2,2),(0.,5.),(10.590169943749,
    13.090169943749),.PIECEWISE_BEZIER_KNOTS.);
#349 = CARTESIAN_POINT('',(19.869757285263,4.657662870562,7.519613545812
    ));
#350 = CARTESIAN_POINT('',(19.869757285263,6.986494305843,7.519613545812
    ));
#351 = CARTESIAN_POINT('',(24.527420155825,4.657662870562,7.519613545812
    ));
#352 = CARTESIAN_POINT('',(24.527420155825,6.986494305843,7.519613545812
    ));
#353 = ADVANCED_FACE('',(#354),#360,.F.);
#354 = FACE_BOUND('',#355,.T.);
#355 = EDGE_LOOP('',(#356,#357,#358,#359));
#356 = ORIENTED_EDGE('',*,*,#343,.F.);
#357 = ORIENTED_EDGE('',*,*,#245,.T.);
#358 = ORIENTED_EDGE('',*,*,#317,.T.);
#359 = ORIENTED_EDGE('',*,*,#297,.T.);
#360 = B_SPLINE_SURFACE_WITH_KNOTS('',1,1,(
    (#361,#362)
    ,(#363,#364
    )),.UNSPECIFIED.,.F.,.F.,.F.,(2,2),(2,2),(-15.,-10.),(
    20.206906325746,22.706906325746),.PIECEWISE_BEZIER_KNOTS.);
#361 = CARTESIAN_POINT('',(19.869757285263,4.657662870562,2.86195067525)
  );
#362 = CARTESIAN_POINT('',(19.869757285263,6.986494305843,2.86195067525)
  );
#363 = CARTESIAN_POINT('',(19.869757285263,4.657662870562,7.519613545812
    ));
#364 = CARTESIAN_POINT('',(19.869757285263,6.986494305843,7.519613545812
    ));
#365 = ADVANCED_FACE('',(#366),#372,.F.);
#366 = FACE_BOUND('',#367,.T.);
#367 = EDGE_LOOP('',(#368,#369,#370,#371));
#368 = ORIENTED_EDGE('',*,*,#323,.T.);
#369 = ORIENTED_EDGE('',*,*,#261,.T.);
#370 = ORIENTED_EDGE('',*,*,#337,.T.);
#371 = ORIENTED_EDGE('',*,*,#281,.T.);
#372 = B_SPLINE_SURFACE_WITH_KNOTS('',1,1,(
    (#373,#374)
    ,(#375,#376
    )),.UNSPECIFIED.,.F.,.F.,.F.,(2,2),(2,2),(-5.,0.),(-43.07886552932,
    -40.57886552932),.PIECEWISE_BEZIER_KNOTS.);
#373 = CARTESIAN_POINT('',(24.527420155825,4.657662870562,7.519613545812
    ));
#374 = CARTESIAN_POINT('',(24.527420155825,6.986494305843,7.519613545812
    ));
#375 = CARTESIAN_POINT('',(24.527420155825,4.657662870562,2.86195067525)
  );
#376 = CARTESIAN_POINT('',(24.527420155825,6.986494305843,2.86195067525)
  );
#377 = ( GEOMETRIC_REPRESENTATION_CONTEXT(3) 
GLOBAL_UNCERTAINTY_ASSIGNED_CONTEXT((#381)) GLOBAL_UNIT_ASSIGNED_CONTEXT
((#378,#379,#380)) REPRESENTATION_CONTEXT('Context #1',
  '3D Context with UNIT and UNCERTAINTY') );
#378 = ( LENGTH_UNIT() NAMED_UNIT(*) SI_UNIT(.MILLI.,.METRE.) );
#379 = ( NAMED_UNIT(*) PLANE_ANGLE_UNIT() SI_UNIT($,.RADIAN.) );
#380 = ( NAMED_UNIT(*) SI_UNIT($,.STERADIAN.) SOLID_ANGLE_UNIT() );
#381 = UNCERTAINTY_MEASURE_WITH_UNIT(LENGTH_MEASURE(1.E-07),#378,
  'distance_accuracy_value','confusion accuracy');
#382 = PRODUCT_RELATED_PRODUCT_CATEGORY('part',$,(#7));
ENDSEC;
END-ISO-10303-21;
