ISO-10303-21;
HEADER;
FILE_DESCRIPTION(('FreeCAD Model'),'2;1');
FILE_NAME('Open CASCADE Shape Model','2025-05-03T20:07:29',('FreeCAD'),(
    'FreeCAD'),'Open CASCADE STEP processor 7.6','FreeCAD','Unknown');
FILE_SCHEMA(('AUTOMOTIVE_DESIGN { 1 0 10303 214 1 1 1 1 }'));
ENDSEC;
DATA;
#1 = APPLICATION_PROTOCOL_DEFINITION('international standard',
  'automotive_design',2000,#2);
#2 = APPLICATION_CONTEXT(
  'core data for automotive mechanical design processes');
#3 = SHAPE_DEFINITION_REPRESENTATION(#4,#10);
#4 = PRODUCT_DEFINITION_SHAPE('','',#5);
#5 = PRODUCT_DEFINITION('design','',#6,#9);
#6 = PRODUCT_DEFINITION_FORMATION('','',#7);
#7 = PRODUCT('Open CASCADE STEP translator 7.6 1',
  'Open CASCADE STEP translator 7.6 1','',(#8));
#8 = PRODUCT_CONTEXT('',#2,'mechanical');
#9 = PRODUCT_DEFINITION_CONTEXT('part definition',#2,'design');
#10 = ADVANCED_BREP_SHAPE_REPRESENTATION('',(#11,#15),#273);
#11 = AXIS2_PLACEMENT_3D('',#12,#13,#14);
#12 = CARTESIAN_POINT('',(0.,0.,0.));
#13 = DIRECTION('',(0.,0.,1.));
#14 = DIRECTION('',(1.,0.,-0.));
#15 = MANIFOLD_SOLID_BREP('',#16);
#16 = CLOSED_SHELL('',(#17,#53,#81,#109,#137,#165,#193,#221,#241,#257));
#17 = ADVANCED_FACE('',(#18),#48,.T.);
#18 = FACE_BOUND('',#19,.T.);
#19 = EDGE_LOOP('',(#20,#29,#36,#43));
#20 = ORIENTED_EDGE('',*,*,#21,.T.);
#21 = EDGE_CURVE('',#22,#24,#26,.T.);
#22 = VERTEX_POINT('',#23);
#23 = CARTESIAN_POINT('',(-4.099480564174E-14,2.484533675257,
    122.36328350641));
#24 = VERTEX_POINT('',#25);
#25 = CARTESIAN_POINT('',(12.422668376286,2.484533675257,122.36328350641
    ));
#26 = B_SPLINE_CURVE_WITH_KNOTS('',1,(#27,#28),.UNSPECIFIED.,.F.,.F.,(2,
    2),(-1.9E-16,10.),.PIECEWISE_BEZIER_KNOTS.);
#27 = CARTESIAN_POINT('',(-4.099480564174E-14,2.484533675257,
    122.36328350641));
#28 = CARTESIAN_POINT('',(12.422668376286,2.484533675257,122.36328350641
    ));
#29 = ORIENTED_EDGE('',*,*,#30,.T.);
#30 = EDGE_CURVE('',#24,#31,#33,.T.);
#31 = VERTEX_POINT('',#32);
#32 = CARTESIAN_POINT('',(12.422668376286,2.484533675257,124.22668376285
    ));
#33 = B_SPLINE_CURVE_WITH_KNOTS('',1,(#34,#35),.UNSPECIFIED.,.F.,.F.,(2,
    2),(0.,1.5),.PIECEWISE_BEZIER_KNOTS.);
#34 = CARTESIAN_POINT('',(12.422668376286,2.484533675257,122.36328350641
    ));
#35 = CARTESIAN_POINT('',(12.422668376286,2.484533675257,124.22668376285
    ));
#36 = ORIENTED_EDGE('',*,*,#37,.F.);
#37 = EDGE_CURVE('',#38,#31,#40,.T.);
#38 = VERTEX_POINT('',#39);
#39 = CARTESIAN_POINT('',(-4.099480564174E-14,2.484533675257,
    124.22668376285));
#40 = B_SPLINE_CURVE_WITH_KNOTS('',1,(#41,#42),.UNSPECIFIED.,.F.,.F.,(2,
    2),(3.1E-16,10.),.PIECEWISE_BEZIER_KNOTS.);
#41 = CARTESIAN_POINT('',(-4.099480564174E-14,2.484533675257,
    124.22668376285));
#42 = CARTESIAN_POINT('',(12.422668376286,2.484533675257,124.22668376285
    ));
#43 = ORIENTED_EDGE('',*,*,#44,.F.);
#44 = EDGE_CURVE('',#22,#38,#45,.T.);
#45 = B_SPLINE_CURVE_WITH_KNOTS('',1,(#46,#47),.UNSPECIFIED.,.F.,.F.,(2,
    2),(-8.25E-32,1.5),.PIECEWISE_BEZIER_KNOTS.);
#46 = CARTESIAN_POINT('',(-4.130537235115E-14,2.484533675257,
    122.36328350641));
#47 = CARTESIAN_POINT('',(-4.192029443578E-14,2.484533675257,
    124.22668376285));
#48 = B_SPLINE_SURFACE_WITH_KNOTS('',1,1,(
    (#49,#50)
    ,(#51,#52
    )),.UNSPECIFIED.,.F.,.F.,.F.,(2,2),(2,2),(-3.3E-15,1.5),(-10.,
    4.4E-16),.PIECEWISE_BEZIER_KNOTS.);
#49 = CARTESIAN_POINT('',(12.422668376286,2.484533675257,122.36328350641
    ));
#50 = CARTESIAN_POINT('',(-4.130537235115E-14,2.484533675257,
    122.36328350641));
#51 = CARTESIAN_POINT('',(12.422668376286,2.484533675257,124.22668376285
    ));
#52 = CARTESIAN_POINT('',(-4.192029443578E-14,2.484533675257,
    124.22668376285));
#53 = ADVANCED_FACE('',(#54),#76,.T.);
#54 = FACE_BOUND('',#55,.T.);
#55 = EDGE_LOOP('',(#56,#57,#64,#71));
#56 = ORIENTED_EDGE('',*,*,#37,.T.);
#57 = ORIENTED_EDGE('',*,*,#58,.T.);
#58 = EDGE_CURVE('',#31,#59,#61,.T.);
#59 = VERTEX_POINT('',#60);
#60 = CARTESIAN_POINT('',(12.422668376286,12.422668376286,
    124.22668376285));
#61 = B_SPLINE_CURVE_WITH_KNOTS('',1,(#62,#63),.UNSPECIFIED.,.F.,.F.,(2,
    2),(0.,8.),.PIECEWISE_BEZIER_KNOTS.);
#62 = CARTESIAN_POINT('',(12.422668376286,2.484533675257,124.22668376285
    ));
#63 = CARTESIAN_POINT('',(12.422668376286,12.422668376286,
    124.22668376285));
#64 = ORIENTED_EDGE('',*,*,#65,.F.);
#65 = EDGE_CURVE('',#66,#59,#68,.T.);
#66 = VERTEX_POINT('',#67);
#67 = CARTESIAN_POINT('',(-3.975253880411E-14,12.422668376286,
    124.22668376285));
#68 = B_SPLINE_CURVE_WITH_KNOTS('',1,(#69,#70),.UNSPECIFIED.,.F.,.F.,(2,
    2),(1.31E-15,10.),.PIECEWISE_BEZIER_KNOTS.);
#69 = CARTESIAN_POINT('',(-3.975253880411E-14,12.422668376286,
    124.22668376285));
#70 = CARTESIAN_POINT('',(12.422668376286,12.422668376286,
    124.22668376285));
#71 = ORIENTED_EDGE('',*,*,#72,.F.);
#72 = EDGE_CURVE('',#38,#66,#73,.T.);
#73 = B_SPLINE_CURVE_WITH_KNOTS('',1,(#74,#75),.UNSPECIFIED.,.F.,.F.,(2,
    2),(-1.65E-31,8.),.PIECEWISE_BEZIER_KNOTS.);
#74 = CARTESIAN_POINT('',(-4.192650576996E-14,2.484533675257,
    124.22668376285));
#75 = CARTESIAN_POINT('',(-4.411289540419E-14,12.422668376286,
    124.22668376285));
#76 = B_SPLINE_SURFACE_WITH_KNOTS('',1,1,(
    (#77,#78)
    ,(#79,#80
    )),.UNSPECIFIED.,.F.,.F.,.F.,(2,2),(2,2),(-2.2E-15,8.),(-10.,2.2E-15
    ),.PIECEWISE_BEZIER_KNOTS.);
#77 = CARTESIAN_POINT('',(12.422668376286,2.484533675257,124.22668376285
    ));
#78 = CARTESIAN_POINT('',(-4.411289540419E-14,2.484533675257,
    124.22668376285));
#79 = CARTESIAN_POINT('',(12.422668376286,12.422668376286,
    124.22668376285));
#80 = CARTESIAN_POINT('',(-4.411289540419E-14,12.422668376286,
    124.22668376285));
#81 = ADVANCED_FACE('',(#82),#104,.T.);
#82 = FACE_BOUND('',#83,.T.);
#83 = EDGE_LOOP('',(#84,#85,#92,#99));
#84 = ORIENTED_EDGE('',*,*,#65,.T.);
#85 = ORIENTED_EDGE('',*,*,#86,.T.);
#86 = EDGE_CURVE('',#59,#87,#89,.T.);
#87 = VERTEX_POINT('',#88);
#88 = CARTESIAN_POINT('',(12.422668376286,12.422668376286,
    -3.726800512886E-15));
#89 = B_SPLINE_CURVE_WITH_KNOTS('',1,(#90,#91),.UNSPECIFIED.,.F.,.F.,(2,
    2),(0.,100.),.PIECEWISE_BEZIER_KNOTS.);
#90 = CARTESIAN_POINT('',(12.422668376286,12.422668376286,
    124.22668376285));
#91 = CARTESIAN_POINT('',(12.422668376286,12.422668376286,0.));
#92 = ORIENTED_EDGE('',*,*,#93,.F.);
#93 = EDGE_CURVE('',#94,#87,#96,.T.);
#94 = VERTEX_POINT('',#95);
#95 = CARTESIAN_POINT('',(1.242266837629E-15,12.422668376286,
    -4.969067350514E-15));
#96 = B_SPLINE_CURVE_WITH_KNOTS('',1,(#97,#98),.UNSPECIFIED.,.F.,.F.,(2,
    2),(1.E-15,10.),.PIECEWISE_BEZIER_KNOTS.);
#97 = CARTESIAN_POINT('',(1.242266837629E-15,12.422668376286,
    -4.136748569303E-15));
#98 = CARTESIAN_POINT('',(12.422668376286,12.422668376286,
    -2.770255047912E-15));
#99 = ORIENTED_EDGE('',*,*,#100,.F.);
#100 = EDGE_CURVE('',#66,#94,#101,.T.);
#101 = B_SPLINE_CURVE_WITH_KNOTS('',1,(#102,#103),.UNSPECIFIED.,.F.,.F.,
  (2,2),(1.1649E-30,100.),.PIECEWISE_BEZIER_KNOTS.);
#102 = CARTESIAN_POINT('',(-4.413774074094E-14,12.422668376286,
    124.22668376285));
#103 = CARTESIAN_POINT('',(-3.1429350992E-15,12.422668376286,0.));
#104 = B_SPLINE_SURFACE_WITH_KNOTS('',1,1,(
    (#105,#106)
    ,(#107,#108
  )),.UNSPECIFIED.,.F.,.F.,.F.,(2,2),(2,2),(2.882E-31,100.),(-10.,
    2.22E-15),.PIECEWISE_BEZIER_KNOTS.);
#105 = CARTESIAN_POINT('',(12.422668376286,12.422668376286,
    124.22668376285));
#106 = CARTESIAN_POINT('',(-4.413774074094E-14,12.422668376286,
    124.22668376285));
#107 = CARTESIAN_POINT('',(12.422668376286,12.422668376286,0.));
#108 = CARTESIAN_POINT('',(-3.1429350992E-15,12.422668376286,0.));
#109 = ADVANCED_FACE('',(#110),#132,.T.);
#110 = FACE_BOUND('',#111,.T.);
#111 = EDGE_LOOP('',(#112,#113,#120,#127));
#112 = ORIENTED_EDGE('',*,*,#93,.T.);
#113 = ORIENTED_EDGE('',*,*,#114,.T.);
#114 = EDGE_CURVE('',#87,#115,#117,.T.);
#115 = VERTEX_POINT('',#116);
#116 = CARTESIAN_POINT('',(12.422668376286,-3.726800512886E-15,
    1.242266837629E-15));
#117 = B_SPLINE_CURVE_WITH_KNOTS('',1,(#118,#119),.UNSPECIFIED.,.F.,.F.,
  (2,2),(1.354791028008E-30,10.),.PIECEWISE_BEZIER_KNOTS.);
#118 = CARTESIAN_POINT('',(12.422668376286,12.422668376286,
    -8.826836773526E-15));
#119 = CARTESIAN_POINT('',(12.422668376286,-4.413418386763E-15,
    -4.727356209352E-15));
#120 = ORIENTED_EDGE('',*,*,#121,.F.);
#121 = EDGE_CURVE('',#122,#115,#124,.T.);
#122 = VERTEX_POINT('',#123);
#123 = CARTESIAN_POINT('',(0.,0.,0.));
#124 = B_SPLINE_CURVE_WITH_KNOTS('',1,(#125,#126),.UNSPECIFIED.,.F.,.F.,
  (2,2),(0.,10.),.PIECEWISE_BEZIER_KNOTS.);
#125 = CARTESIAN_POINT('',(0.,0.,0.));
#126 = CARTESIAN_POINT('',(12.422668376286,-2.732987042783E-15,
    1.366493521391E-15));
#127 = ORIENTED_EDGE('',*,*,#128,.F.);
#128 = EDGE_CURVE('',#94,#122,#129,.T.);
#129 = B_SPLINE_CURVE_WITH_KNOTS('',1,(#130,#131),.UNSPECIFIED.,.F.,.F.,
  (2,2),(4.873E-31,10.),.PIECEWISE_BEZIER_KNOTS.);
#130 = CARTESIAN_POINT('',(-2.757832379535E-15,12.422668376286,
    -4.136748569303E-15));
#131 = CARTESIAN_POINT('',(-2.484533675257E-17,0.,-3.726800512886E-17));
#132 = B_SPLINE_SURFACE_WITH_KNOTS('',1,1,(
    (#133,#134)
    ,(#135,#136
    )),.UNSPECIFIED.,.F.,.F.,.F.,(2,2),(2,2),(2.2E-31,10.),(-10.,
    2.22E-15),.PIECEWISE_BEZIER_KNOTS.);
#133 = CARTESIAN_POINT('',(12.422668376286,12.422668376286,
    -2.770255047912E-15));
#134 = CARTESIAN_POINT('',(-2.757832379535E-15,12.422668376286,
    -4.136748569303E-15));
#135 = CARTESIAN_POINT('',(12.422668376286,-4.413418386763E-15,
    1.329225516263E-15));
#136 = CARTESIAN_POINT('',(-2.757832379535E-15,-4.413418386763E-15,
    -3.726800512886E-17));
#137 = ADVANCED_FACE('',(#138),#160,.T.);
#138 = FACE_BOUND('',#139,.T.);
#139 = EDGE_LOOP('',(#140,#141,#148,#155));
#140 = ORIENTED_EDGE('',*,*,#121,.T.);
#141 = ORIENTED_EDGE('',*,*,#142,.T.);
#142 = EDGE_CURVE('',#115,#143,#145,.T.);
#143 = VERTEX_POINT('',#144);
#144 = CARTESIAN_POINT('',(12.422668376286,2.236080307731E-14,
    119.87874983115));
#145 = B_SPLINE_CURVE_WITH_KNOTS('',1,(#146,#147),.UNSPECIFIED.,.F.,.F.,
  (2,2),(4.552713678801E-15,96.5),.PIECEWISE_BEZIER_KNOTS.);
#146 = CARTESIAN_POINT('',(12.422668376286,-6.221253746832E-31,
    1.242266837629E-15));
#147 = CARTESIAN_POINT('',(12.422668376286,-1.318666248143E-14,
    119.87874983115));
#148 = ORIENTED_EDGE('',*,*,#149,.F.);
#149 = EDGE_CURVE('',#150,#143,#152,.T.);
#150 = VERTEX_POINT('',#151);
#151 = CARTESIAN_POINT('',(-3.975253880411E-14,2.60876035902E-14,
    119.87874983115));
#152 = B_SPLINE_CURVE_WITH_KNOTS('',1,(#153,#154),.UNSPECIFIED.,.F.,.F.,
  (2,2),(1.4E-16,10.),.PIECEWISE_BEZIER_KNOTS.);
#153 = CARTESIAN_POINT('',(-3.975253880411E-14,1.3304677831E-14,
    119.87874983115));
#154 = CARTESIAN_POINT('',(12.422668376286,1.057169078822E-14,
    119.87874983115));
#155 = ORIENTED_EDGE('',*,*,#156,.F.);
#156 = EDGE_CURVE('',#122,#150,#157,.T.);
#157 = B_SPLINE_CURVE_WITH_KNOTS('',1,(#158,#159),.UNSPECIFIED.,.F.,.F.,
  (2,2),(0.,96.5),.PIECEWISE_BEZIER_KNOTS.);
#158 = CARTESIAN_POINT('',(0.,0.,0.));
#159 = CARTESIAN_POINT('',(-3.955998744428E-14,-1.318666248143E-14,
    119.87874983115));
#160 = B_SPLINE_SURFACE_WITH_KNOTS('',1,1,(
    (#161,#162)
    ,(#163,#164
  )),.UNSPECIFIED.,.F.,.F.,.F.,(2,2),(2,2),(-2.3E-15,96.5),(-10.,
    1.55E-16),.PIECEWISE_BEZIER_KNOTS.);
#161 = CARTESIAN_POINT('',(12.422668376286,-2.732987042783E-15,
    1.242266837629E-15));
#162 = CARTESIAN_POINT('',(-1.925513598324E-16,-2.719322107569E-31,
    -2.857213726546E-15));
#163 = CARTESIAN_POINT('',(12.422668376286,1.045367543864E-14,
    119.87874983115));
#164 = CARTESIAN_POINT('',(-3.975253880411E-14,1.318666248143E-14,
    119.87874983115));
#165 = ADVANCED_FACE('',(#166),#188,.F.);
#166 = FACE_BOUND('',#167,.F.);
#167 = EDGE_LOOP('',(#168,#177,#182,#183));
#168 = ORIENTED_EDGE('',*,*,#169,.T.);
#169 = EDGE_CURVE('',#170,#172,#174,.T.);
#170 = VERTEX_POINT('',#171);
#171 = CARTESIAN_POINT('',(-3.851027196649E-14,9.938134701029,
    119.87874983115));
#172 = VERTEX_POINT('',#173);
#173 = CARTESIAN_POINT('',(12.422668376286,9.938134701029,
    119.87874983115));
#174 = B_SPLINE_CURVE_WITH_KNOTS('',1,(#175,#176),.UNSPECIFIED.,.F.,.F.,
  (2,2),(1.14E-15,10.),.PIECEWISE_BEZIER_KNOTS.);
#175 = CARTESIAN_POINT('',(-3.851027196649E-14,9.938134701029,
    119.87874983115));
#176 = CARTESIAN_POINT('',(12.422668376286,9.938134701029,
    119.87874983115));
#177 = ORIENTED_EDGE('',*,*,#178,.T.);
#178 = EDGE_CURVE('',#172,#143,#179,.T.);
#179 = B_SPLINE_CURVE_WITH_KNOTS('',1,(#180,#181),.UNSPECIFIED.,.F.,.F.,
  (2,2),(0.,8.),.PIECEWISE_BEZIER_KNOTS.);
#180 = CARTESIAN_POINT('',(12.422668376286,9.938134701029,
    119.87874983115));
#181 = CARTESIAN_POINT('',(12.422668376286,2.206709193382E-14,
    119.87874983115));
#182 = ORIENTED_EDGE('',*,*,#149,.F.);
#183 = ORIENTED_EDGE('',*,*,#184,.F.);
#184 = EDGE_CURVE('',#170,#150,#185,.T.);
#185 = B_SPLINE_CURVE_WITH_KNOTS('',1,(#186,#187),.UNSPECIFIED.,.F.,.F.,
  (2,2),(6.424E-31,8.),.PIECEWISE_BEZIER_KNOTS.);
#186 = CARTESIAN_POINT('',(-4.213769113236E-14,9.938134701029,
    119.87874983115));
#187 = CARTESIAN_POINT('',(-3.995130149813E-14,2.648051032058E-14,
    119.87874983115));
#188 = B_SPLINE_SURFACE_WITH_KNOTS('',1,1,(
    (#189,#190)
    ,(#191,#192
    )),.UNSPECIFIED.,.F.,.F.,.F.,(2,2),(2,2),(0.,8.),(-10.,1.78E-15),
  .PIECEWISE_BEZIER_KNOTS.);
#189 = CARTESIAN_POINT('',(12.422668376286,9.938134701029,
    119.87874983115));
#190 = CARTESIAN_POINT('',(-4.213769113236E-14,9.938134701029,
    119.87874983115));
#191 = CARTESIAN_POINT('',(12.422668376286,1.103354596691E-14,
    119.87874983115));
#192 = CARTESIAN_POINT('',(-4.213769113236E-14,1.103354596691E-14,
    119.87874983115));
#193 = ADVANCED_FACE('',(#194),#216,.F.);
#194 = FACE_BOUND('',#195,.F.);
#195 = EDGE_LOOP('',(#196,#205,#210,#211));
#196 = ORIENTED_EDGE('',*,*,#197,.T.);
#197 = EDGE_CURVE('',#198,#200,#202,.T.);
#198 = VERTEX_POINT('',#199);
#199 = CARTESIAN_POINT('',(-3.975253880411E-14,9.938134701029,
    122.36328350641));
#200 = VERTEX_POINT('',#201);
#201 = CARTESIAN_POINT('',(12.422668376286,9.938134701029,
    122.36328350641));
#202 = B_SPLINE_CURVE_WITH_KNOTS('',1,(#203,#204),.UNSPECIFIED.,.F.,.F.,
  (2,2),(8.1E-16,10.),.PIECEWISE_BEZIER_KNOTS.);
#203 = CARTESIAN_POINT('',(-3.975253880411E-14,9.938134701029,
    122.36328350641));
#204 = CARTESIAN_POINT('',(12.422668376286,9.938134701029,
    122.36328350641));
#205 = ORIENTED_EDGE('',*,*,#206,.T.);
#206 = EDGE_CURVE('',#200,#172,#207,.T.);
#207 = B_SPLINE_CURVE_WITH_KNOTS('',1,(#208,#209),.UNSPECIFIED.,.F.,.F.,
  (2,2),(0.,2.),.PIECEWISE_BEZIER_KNOTS.);
#208 = CARTESIAN_POINT('',(12.422668376286,9.938134701029,
    122.36328350641));
#209 = CARTESIAN_POINT('',(12.422668376286,9.938134701029,
    119.87874983115));
#210 = ORIENTED_EDGE('',*,*,#169,.F.);
#211 = ORIENTED_EDGE('',*,*,#212,.F.);
#212 = EDGE_CURVE('',#198,#170,#213,.T.);
#213 = B_SPLINE_CURVE_WITH_KNOTS('',1,(#214,#215),.UNSPECIFIED.,.F.,.F.,
  (2,2),(8.514E-31,2.),.PIECEWISE_BEZIER_KNOTS.);
#214 = CARTESIAN_POINT('',(-4.29575872452E-14,9.938134701029,
    122.36328350641));
#215 = CARTESIAN_POINT('',(-4.213769113236E-14,9.938134701029,
    119.87874983115));
#216 = B_SPLINE_SURFACE_WITH_KNOTS('',1,1,(
    (#217,#218)
    ,(#219,#220
    )),.UNSPECIFIED.,.F.,.F.,.F.,(2,2),(2,2),(1.782E-31,2.),(-10.,
    1.77E-15),.PIECEWISE_BEZIER_KNOTS.);
#217 = CARTESIAN_POINT('',(12.422668376286,9.938134701029,
    122.36328350641));
#218 = CARTESIAN_POINT('',(-4.29575872452E-14,9.938134701029,
    122.36328350641));
#219 = CARTESIAN_POINT('',(12.422668376286,9.938134701029,
    119.87874983115));
#220 = CARTESIAN_POINT('',(-4.213769113236E-14,9.938134701029,
    119.87874983115));
#221 = ADVANCED_FACE('',(#222),#236,.F.);
#222 = FACE_BOUND('',#223,.F.);
#223 = EDGE_LOOP('',(#224,#225,#230,#231));
#224 = ORIENTED_EDGE('',*,*,#21,.T.);
#225 = ORIENTED_EDGE('',*,*,#226,.T.);
#226 = EDGE_CURVE('',#24,#200,#227,.T.);
#227 = B_SPLINE_CURVE_WITH_KNOTS('',1,(#228,#229),.UNSPECIFIED.,.F.,.F.,
  (2,2),(0.,6.),.PIECEWISE_BEZIER_KNOTS.);
#228 = CARTESIAN_POINT('',(12.422668376286,2.484533675257,
    122.36328350641));
#229 = CARTESIAN_POINT('',(12.422668376286,9.938134701029,
    122.36328350641));
#230 = ORIENTED_EDGE('',*,*,#197,.F.);
#231 = ORIENTED_EDGE('',*,*,#232,.F.);
#232 = EDGE_CURVE('',#22,#198,#233,.T.);
#233 = B_SPLINE_CURVE_WITH_KNOTS('',1,(#234,#235),.UNSPECIFIED.,.F.,.F.,
  (2,2),(-5.5E-32,6.),.PIECEWISE_BEZIER_KNOTS.);
#234 = CARTESIAN_POINT('',(-4.130537235115E-14,2.484533675257,
    122.36328350641));
#235 = CARTESIAN_POINT('',(-4.294516457682E-14,9.938134701029,
    122.36328350641));
#236 = B_SPLINE_SURFACE_WITH_KNOTS('',1,1,(
    (#237,#238)
    ,(#239,#240
    )),.UNSPECIFIED.,.F.,.F.,.F.,(2,2),(2,2),(-2.2E-15,6.),(-10.,
    1.76E-15),.PIECEWISE_BEZIER_KNOTS.);
#237 = CARTESIAN_POINT('',(12.422668376286,2.484533675257,
    122.36328350641));
#238 = CARTESIAN_POINT('',(-4.294516457682E-14,2.484533675257,
    122.36328350641));
#239 = CARTESIAN_POINT('',(12.422668376286,9.938134701029,
    122.36328350641));
#240 = CARTESIAN_POINT('',(-4.294516457682E-14,9.938134701029,
    122.36328350641));
#241 = ADVANCED_FACE('',(#242),#252,.F.);
#242 = FACE_BOUND('',#243,.T.);
#243 = EDGE_LOOP('',(#244,#245,#246,#247,#248,#249,#250,#251));
#244 = ORIENTED_EDGE('',*,*,#44,.T.);
#245 = ORIENTED_EDGE('',*,*,#72,.T.);
#246 = ORIENTED_EDGE('',*,*,#100,.T.);
#247 = ORIENTED_EDGE('',*,*,#128,.T.);
#248 = ORIENTED_EDGE('',*,*,#156,.T.);
#249 = ORIENTED_EDGE('',*,*,#184,.F.);
#250 = ORIENTED_EDGE('',*,*,#212,.F.);
#251 = ORIENTED_EDGE('',*,*,#232,.F.);
#252 = B_SPLINE_SURFACE_WITH_KNOTS('',1,1,(
    (#253,#254)
    ,(#255,#256
    )),.UNSPECIFIED.,.F.,.F.,.F.,(2,2),(2,2),(-52.42672413793,
    47.573275862069),(-4.918103448276,5.081896551724),
  .PIECEWISE_BEZIER_KNOTS.);
#253 = CARTESIAN_POINT('',(-2.891370709982E-14,12.422668376286,0.));
#254 = CARTESIAN_POINT('',(-3.16466941426E-14,0.,0.));
#255 = CARTESIAN_POINT('',(-1.524877188591E-14,12.422668376286,
    124.22668376285));
#256 = CARTESIAN_POINT('',(-1.798175892869E-14,-1.324025516029E-14,
    124.22668376285));
#257 = ADVANCED_FACE('',(#258),#268,.T.);
#258 = FACE_BOUND('',#259,.F.);
#259 = EDGE_LOOP('',(#260,#261,#262,#263,#264,#265,#266,#267));
#260 = ORIENTED_EDGE('',*,*,#30,.T.);
#261 = ORIENTED_EDGE('',*,*,#58,.T.);
#262 = ORIENTED_EDGE('',*,*,#86,.T.);
#263 = ORIENTED_EDGE('',*,*,#114,.T.);
#264 = ORIENTED_EDGE('',*,*,#142,.T.);
#265 = ORIENTED_EDGE('',*,*,#178,.F.);
#266 = ORIENTED_EDGE('',*,*,#206,.F.);
#267 = ORIENTED_EDGE('',*,*,#226,.F.);
#268 = B_SPLINE_SURFACE_WITH_KNOTS('',1,1,(
    (#269,#270)
    ,(#271,#272
    )),.UNSPECIFIED.,.F.,.F.,.F.,(2,2),(2,2),(-52.42672413793,
    47.573275862069),(-4.918103448276,5.081896551724),
  .PIECEWISE_BEZIER_KNOTS.);
#269 = CARTESIAN_POINT('',(12.422668376286,12.422668376286,
    -8.826836773527E-15));
#270 = CARTESIAN_POINT('',(12.422668376286,-4.413418386763E-15,
    -8.826836773527E-15));
#271 = CARTESIAN_POINT('',(12.422668376286,12.422668376286,
    124.22668376285));
#272 = CARTESIAN_POINT('',(12.422668376286,-1.765367354705E-14,
    124.22668376285));
#273 = ( GEOMETRIC_REPRESENTATION_CONTEXT(3) 
GLOBAL_UNCERTAINTY_ASSIGNED_CONTEXT((#277)) GLOBAL_UNIT_ASSIGNED_CONTEXT
((#274,#275,#276)) REPRESENTATION_CONTEXT('Context #1',
  '3D Context with UNIT and UNCERTAINTY') );
#274 = ( LENGTH_UNIT() NAMED_UNIT(*) SI_UNIT(.MILLI.,.METRE.) );
#275 = ( NAMED_UNIT(*) PLANE_ANGLE_UNIT() SI_UNIT($,.RADIAN.) );
#276 = ( NAMED_UNIT(*) SI_UNIT($,.STERADIAN.) SOLID_ANGLE_UNIT() );
#277 = UNCERTAINTY_MEASURE_WITH_UNIT(LENGTH_MEASURE(1.E-07),#274,
  'distance_accuracy_value','confusion accuracy');
#278 = PRODUCT_RELATED_PRODUCT_CATEGORY('part',$,(#7));
ENDSEC;
END-ISO-10303-21;
