ISO-10303-21;
HEADER;
FILE_DESCRIPTION(('FreeCAD Model'),'2;1');
FILE_NAME('Open CASCADE Shape Model','2025-05-03T19:23:58',('FreeCAD'),(
    'FreeCAD'),'Open CASCADE STEP processor 7.6','FreeCAD','Unknown');
FILE_SCHEMA(('AUTOMOTIVE_DESIGN { 1 0 10303 214 1 1 1 1 }'));
ENDSEC;
DATA;
#1 = APPLICATION_PROTOCOL_DEFINITION('international standard',
  'automotive_design',2000,#2);
#2 = APPLICATION_CONTEXT(
  'core data for automotive mechanical design processes');
#3 = SHAPE_DEFINITION_REPRESENTATION(#4,#10);
#4 = PRODUCT_DEFINITION_SHAPE('','',#5);
#5 = PRODUCT_DEFINITION('design','',#6,#9);
#6 = PRODUCT_DEFINITION_FORMATION('','',#7);
#7 = PRODUCT('Open CASCADE STEP translator 7.6 1',
  'Open CASCADE STEP translator 7.6 1','',(#8));
#8 = PRODUCT_CONTEXT('',#2,'mechanical');
#9 = PRODUCT_DEFINITION_CONTEXT('part definition',#2,'design');
#10 = ADVANCED_BREP_SHAPE_REPRESENTATION('',(#11,#15),#405);
#11 = AXIS2_PLACEMENT_3D('',#12,#13,#14);
#12 = CARTESIAN_POINT('',(0.,0.,0.));
#13 = DIRECTION('',(0.,0.,1.));
#14 = DIRECTION('',(1.,0.,-0.));
#15 = MANIFOLD_SOLID_BREP('',#16);
#16 = CLOSED_SHELL('',(#17,#53,#111,#133,#155,#207,#259,#271,#302,#321,
    #349,#365,#381,#393));
#17 = ADVANCED_FACE('',(#18),#48,.F.);
#18 = FACE_BOUND('',#19,.T.);
#19 = EDGE_LOOP('',(#20,#29,#36,#43));
#20 = ORIENTED_EDGE('',*,*,#21,.F.);
#21 = EDGE_CURVE('',#22,#24,#26,.T.);
#22 = VERTEX_POINT('',#23);
#23 = CARTESIAN_POINT('',(2.618147088041,20.206724961548,2.685279064658)
  );
#24 = VERTEX_POINT('',#25);
#25 = CARTESIAN_POINT('',(2.618147088041,-16.11167438794,2.685279064658)
  );
#26 = B_SPLINE_CURVE_WITH_KNOTS('',1,(#27,#28),.UNSPECIFIED.,.F.,.F.,(2,
    2),(-15.05,12.),.PIECEWISE_BEZIER_KNOTS.);
#27 = CARTESIAN_POINT('',(2.618147088041,20.206724961548,2.685279064658)
  );
#28 = CARTESIAN_POINT('',(2.618147088041,-16.11167438794,2.685279064658)
  );
#29 = ORIENTED_EDGE('',*,*,#30,.F.);
#30 = EDGE_CURVE('',#31,#22,#33,.T.);
#31 = VERTEX_POINT('',#32);
#32 = CARTESIAN_POINT('',(2.618147088041,20.206724961548,14.769034855617
    ));
#33 = B_SPLINE_CURVE_WITH_KNOTS('',1,(#34,#35),.UNSPECIFIED.,.F.,.F.,(2,
    2),(-11.,-2.),.PIECEWISE_BEZIER_KNOTS.);
#34 = CARTESIAN_POINT('',(2.618147088041,20.206724961548,14.769034855617
    ));
#35 = CARTESIAN_POINT('',(2.618147088041,20.206724961548,2.685279064658)
  );
#36 = ORIENTED_EDGE('',*,*,#37,.F.);
#37 = EDGE_CURVE('',#38,#31,#40,.T.);
#38 = VERTEX_POINT('',#39);
#39 = CARTESIAN_POINT('',(2.618147088041,-16.11167438794,14.769034855617
    ));
#40 = B_SPLINE_CURVE_WITH_KNOTS('',1,(#41,#42),.UNSPECIFIED.,.F.,.F.,(2,
    2),(-17.25,9.8),.PIECEWISE_BEZIER_KNOTS.);
#41 = CARTESIAN_POINT('',(2.618147088041,-16.11167438794,14.769034855617
    ));
#42 = CARTESIAN_POINT('',(2.618147088041,20.206724961548,14.769034855617
    ));
#43 = ORIENTED_EDGE('',*,*,#44,.F.);
#44 = EDGE_CURVE('',#24,#38,#45,.T.);
#45 = B_SPLINE_CURVE_WITH_KNOTS('',1,(#46,#47),.UNSPECIFIED.,.F.,.F.,(2,
    2),(1.,10.),.PIECEWISE_BEZIER_KNOTS.);
#46 = CARTESIAN_POINT('',(2.618147088041,-16.11167438794,2.685279064658)
  );
#47 = CARTESIAN_POINT('',(2.618147088041,-16.11167438794,14.769034855617
    ));
#48 = B_SPLINE_SURFACE_WITH_KNOTS('',1,1,(
    (#49,#50)
    ,(#51,#52
    )),.UNSPECIFIED.,.F.,.F.,.F.,(2,2),(2,2),(2.,11.),(-14.,13.05),
  .PIECEWISE_BEZIER_KNOTS.);
#49 = CARTESIAN_POINT('',(2.618147088041,-16.11167438794,2.685279064658)
  );
#50 = CARTESIAN_POINT('',(2.618147088041,20.206724961548,2.685279064658)
  );
#51 = CARTESIAN_POINT('',(2.618147088041,-16.11167438794,14.769034855617
    ));
#52 = CARTESIAN_POINT('',(2.618147088041,20.206724961548,14.769034855617
    ));
#53 = ADVANCED_FACE('',(#54,#84),#106,.T.);
#54 = FACE_BOUND('',#55,.T.);
#55 = EDGE_LOOP('',(#56,#65,#72,#79));
#56 = ORIENTED_EDGE('',*,*,#57,.T.);
#57 = EDGE_CURVE('',#58,#60,#62,.T.);
#58 = VERTEX_POINT('',#59);
#59 = CARTESIAN_POINT('',(0.,22.824872049589,14.769034855617));
#60 = VERTEX_POINT('',#61);
#61 = CARTESIAN_POINT('',(0.,-18.7969534526,14.769034855617));
#62 = B_SPLINE_CURVE_WITH_KNOTS('',1,(#63,#64),.UNSPECIFIED.,.F.,.F.,(2,
    2),(4.962440457337E-32,31.),.PIECEWISE_BEZIER_KNOTS.);
#63 = CARTESIAN_POINT('',(1.233194404256E-15,22.824872049589,
    14.769034855617));
#64 = CARTESIAN_POINT('',(-1.015571862329E-15,-18.7969534526,
    14.769034855617));
#65 = ORIENTED_EDGE('',*,*,#66,.F.);
#66 = EDGE_CURVE('',#67,#60,#69,.T.);
#67 = VERTEX_POINT('',#68);
#68 = CARTESIAN_POINT('',(32.223348775891,-18.7969534526,14.769034855617
    ));
#69 = B_SPLINE_CURVE_WITH_KNOTS('',1,(#70,#71),.UNSPECIFIED.,.F.,.F.,(2,
    2),(-24.,0.),.PIECEWISE_BEZIER_KNOTS.);
#70 = CARTESIAN_POINT('',(32.223348775891,-18.7969534526,14.769034855617
    ));
#71 = CARTESIAN_POINT('',(0.,-18.7969534526,14.769034855617));
#72 = ORIENTED_EDGE('',*,*,#73,.F.);
#73 = EDGE_CURVE('',#74,#67,#76,.T.);
#74 = VERTEX_POINT('',#75);
#75 = CARTESIAN_POINT('',(32.223348775891,22.824872049589,
    14.769034855617));
#76 = B_SPLINE_CURVE_WITH_KNOTS('',1,(#77,#78),.UNSPECIFIED.,.F.,.F.,(2,
    2),(-17.,14.),.PIECEWISE_BEZIER_KNOTS.);
#77 = CARTESIAN_POINT('',(32.223348775891,22.824872049589,
    14.769034855617));
#78 = CARTESIAN_POINT('',(32.223348775891,-18.7969534526,14.769034855617
    ));
#79 = ORIENTED_EDGE('',*,*,#80,.T.);
#80 = EDGE_CURVE('',#74,#58,#81,.T.);
#81 = B_SPLINE_CURVE_WITH_KNOTS('',1,(#82,#83),.UNSPECIFIED.,.F.,.F.,(2,
    2),(0.,24.),.PIECEWISE_BEZIER_KNOTS.);
#82 = CARTESIAN_POINT('',(32.223348775891,22.824872049589,
    14.769034855617));
#83 = CARTESIAN_POINT('',(0.,22.824872049589,14.769034855617));
#84 = FACE_BOUND('',#85,.T.);
#85 = EDGE_LOOP('',(#86,#93,#94,#101));
#86 = ORIENTED_EDGE('',*,*,#87,.T.);
#87 = EDGE_CURVE('',#88,#38,#90,.T.);
#88 = VERTEX_POINT('',#89);
#89 = CARTESIAN_POINT('',(29.60520168785,-16.11167438794,14.769034855617
    ));
#90 = B_SPLINE_CURVE_WITH_KNOTS('',1,(#91,#92),.UNSPECIFIED.,.F.,.F.,(2,
    2),(-15.05,5.05),.PIECEWISE_BEZIER_KNOTS.);
#91 = CARTESIAN_POINT('',(29.60520168785,-16.11167438794,14.769034855617
    ));
#92 = CARTESIAN_POINT('',(2.618147088041,-16.11167438794,14.769034855617
    ));
#93 = ORIENTED_EDGE('',*,*,#37,.T.);
#94 = ORIENTED_EDGE('',*,*,#95,.T.);
#95 = EDGE_CURVE('',#31,#96,#98,.T.);
#96 = VERTEX_POINT('',#97);
#97 = CARTESIAN_POINT('',(29.60520168785,20.206724961548,14.769034855617
    ));
#98 = B_SPLINE_CURVE_WITH_KNOTS('',1,(#99,#100),.UNSPECIFIED.,.F.,.F.,(2
    ,2),(-5.05,15.05),.PIECEWISE_BEZIER_KNOTS.);
#99 = CARTESIAN_POINT('',(2.618147088041,20.206724961548,14.769034855617
    ));
#100 = CARTESIAN_POINT('',(29.60520168785,20.206724961548,
    14.769034855617));
#101 = ORIENTED_EDGE('',*,*,#102,.T.);
#102 = EDGE_CURVE('',#96,#88,#103,.T.);
#103 = B_SPLINE_CURVE_WITH_KNOTS('',1,(#104,#105),.UNSPECIFIED.,.F.,.F.,
  (2,2),(-3.3,23.75),.PIECEWISE_BEZIER_KNOTS.);
#104 = CARTESIAN_POINT('',(29.60520168785,20.206724961548,
    14.769034855617));
#105 = CARTESIAN_POINT('',(29.60520168785,-16.11167438794,
    14.769034855617));
#106 = B_SPLINE_SURFACE_WITH_KNOTS('',1,1,(
    (#107,#108)
    ,(#109,#110
    )),.UNSPECIFIED.,.F.,.F.,.F.,(2,2),(2,2),(-12.,12.),(-22.5,8.5),
  .PIECEWISE_BEZIER_KNOTS.);
#107 = CARTESIAN_POINT('',(0.,-18.7969534526,14.769034855617));
#108 = CARTESIAN_POINT('',(0.,22.824872049589,14.769034855617));
#109 = CARTESIAN_POINT('',(32.223348775891,-18.7969534526,
    14.769034855617));
#110 = CARTESIAN_POINT('',(32.223348775891,22.824872049589,
    14.769034855617));
#111 = ADVANCED_FACE('',(#112),#128,.F.);
#112 = FACE_BOUND('',#113,.T.);
#113 = EDGE_LOOP('',(#114,#121,#126,#127));
#114 = ORIENTED_EDGE('',*,*,#115,.F.);
#115 = EDGE_CURVE('',#116,#22,#118,.T.);
#116 = VERTEX_POINT('',#117);
#117 = CARTESIAN_POINT('',(29.60520168785,20.206724961548,2.685279064658
    ));
#118 = B_SPLINE_CURVE_WITH_KNOTS('',1,(#119,#120),.UNSPECIFIED.,.F.,.F.,
  (2,2),(-20.05,5.E-02),.PIECEWISE_BEZIER_KNOTS.);
#119 = CARTESIAN_POINT('',(29.60520168785,20.206724961548,2.685279064658
    ));
#120 = CARTESIAN_POINT('',(2.618147088041,20.206724961548,2.685279064658
    ));
#121 = ORIENTED_EDGE('',*,*,#122,.F.);
#122 = EDGE_CURVE('',#96,#116,#123,.T.);
#123 = B_SPLINE_CURVE_WITH_KNOTS('',1,(#124,#125),.UNSPECIFIED.,.F.,.F.,
  (2,2),(-11.,-2.),.PIECEWISE_BEZIER_KNOTS.);
#124 = CARTESIAN_POINT('',(29.60520168785,20.206724961548,
    14.769034855617));
#125 = CARTESIAN_POINT('',(29.60520168785,20.206724961548,2.685279064658
    ));
#126 = ORIENTED_EDGE('',*,*,#95,.F.);
#127 = ORIENTED_EDGE('',*,*,#30,.T.);
#128 = B_SPLINE_SURFACE_WITH_KNOTS('',1,1,(
    (#129,#130)
    ,(#131,#132
    )),.UNSPECIFIED.,.F.,.F.,.F.,(2,2),(2,2),(2.,11.),(-5.E-02,20.05),
  .PIECEWISE_BEZIER_KNOTS.);
#129 = CARTESIAN_POINT('',(2.618147088041,20.206724961548,2.685279064658
    ));
#130 = CARTESIAN_POINT('',(29.60520168785,20.206724961548,2.685279064658
    ));
#131 = CARTESIAN_POINT('',(2.618147088041,20.206724961548,
    14.769034855617));
#132 = CARTESIAN_POINT('',(29.60520168785,20.206724961548,
    14.769034855617));
#133 = ADVANCED_FACE('',(#134),#150,.F.);
#134 = FACE_BOUND('',#135,.T.);
#135 = EDGE_LOOP('',(#136,#143,#148,#149));
#136 = ORIENTED_EDGE('',*,*,#137,.F.);
#137 = EDGE_CURVE('',#138,#116,#140,.T.);
#138 = VERTEX_POINT('',#139);
#139 = CARTESIAN_POINT('',(29.60520168785,-16.11167438794,2.685279064658
    ));
#140 = B_SPLINE_CURVE_WITH_KNOTS('',1,(#141,#142),.UNSPECIFIED.,.F.,.F.,
  (2,2),(-27.,5.E-02),.PIECEWISE_BEZIER_KNOTS.);
#141 = CARTESIAN_POINT('',(29.60520168785,-16.11167438794,2.685279064658
    ));
#142 = CARTESIAN_POINT('',(29.60520168785,20.206724961548,2.685279064658
    ));
#143 = ORIENTED_EDGE('',*,*,#144,.F.);
#144 = EDGE_CURVE('',#88,#138,#145,.T.);
#145 = B_SPLINE_CURVE_WITH_KNOTS('',1,(#146,#147),.UNSPECIFIED.,.F.,.F.,
  (2,2),(-11.,-2.),.PIECEWISE_BEZIER_KNOTS.);
#146 = CARTESIAN_POINT('',(29.60520168785,-16.11167438794,
    14.769034855617));
#147 = CARTESIAN_POINT('',(29.60520168785,-16.11167438794,2.685279064658
    ));
#148 = ORIENTED_EDGE('',*,*,#102,.F.);
#149 = ORIENTED_EDGE('',*,*,#122,.T.);
#150 = B_SPLINE_SURFACE_WITH_KNOTS('',1,1,(
    (#151,#152)
    ,(#153,#154
    )),.UNSPECIFIED.,.F.,.F.,.F.,(2,2),(2,2),(-11.,-2.),(-27.,5.E-02),
  .PIECEWISE_BEZIER_KNOTS.);
#151 = CARTESIAN_POINT('',(29.60520168785,-16.11167438794,
    14.769034855617));
#152 = CARTESIAN_POINT('',(29.60520168785,20.206724961548,
    14.769034855617));
#153 = CARTESIAN_POINT('',(29.60520168785,-16.11167438794,2.685279064658
    ));
#154 = CARTESIAN_POINT('',(29.60520168785,20.206724961548,2.685279064658
    ));
#155 = ADVANCED_FACE('',(#156),#188,.F.);
#156 = FACE_BOUND('',#157,.F.);
#157 = EDGE_LOOP('',(#158,#167,#177,#178));
#158 = ORIENTED_EDGE('',*,*,#159,.T.);
#159 = EDGE_CURVE('',#160,#162,#164,.T.);
#160 = VERTEX_POINT('',#161);
#161 = CARTESIAN_POINT('',(11.748095907877,-45.64974409917,
    7.384517427808));
#162 = VERTEX_POINT('',#163);
#163 = CARTESIAN_POINT('',(11.748095907877,-16.11167438794,
    7.384517427808));
#164 = B_SPLINE_CURVE_WITH_KNOTS('',1,(#165,#166),.UNSPECIFIED.,.F.,.F.,
  (2,2),(-20.,2.),.PIECEWISE_BEZIER_KNOTS.);
#165 = CARTESIAN_POINT('',(11.748095907877,-45.64974409917,
    7.384517427808));
#166 = CARTESIAN_POINT('',(11.748095907877,-16.11167438794,
    7.384517427808));
#167 = ORIENTED_EDGE('',*,*,#168,.T.);
#168 = EDGE_CURVE('',#162,#162,#169,.T.);
#169 = ( BOUNDED_CURVE() B_SPLINE_CURVE(2,(#170,#171,#172,#173,#174,#175
,#176),.UNSPECIFIED.,.T.,.F.) B_SPLINE_CURVE_WITH_KNOTS((3,2,2,3),(
    3.14159265359,5.235987755983,7.330382858376,9.424777960769),
.PIECEWISE_BEZIER_KNOTS.) CURVE() GEOMETRIC_REPRESENTATION_ITEM() 
RATIONAL_B_SPLINE_CURVE((1.,0.5,1.,0.5,1.,0.5,1.)) REPRESENTATION_ITEM(
  '') );
#170 = CARTESIAN_POINT('',(11.748095907877,-16.11167438794,
    7.384517427808));
#171 = CARTESIAN_POINT('',(11.748095907877,-16.11167438794,
    -0.173422202485));
#172 = CARTESIAN_POINT('',(18.29346362798,-16.11167438794,3.605547612662
    ));
#173 = CARTESIAN_POINT('',(24.838831348082,-16.11167438794,
    7.384517427808));
#174 = CARTESIAN_POINT('',(18.29346362798,-16.11167438794,
    11.163487242955));
#175 = CARTESIAN_POINT('',(11.748095907877,-16.11167438794,
    14.942457058101));
#176 = CARTESIAN_POINT('',(11.748095907877,-16.11167438794,
    7.384517427808));
#177 = ORIENTED_EDGE('',*,*,#159,.F.);
#178 = ORIENTED_EDGE('',*,*,#179,.T.);
#179 = EDGE_CURVE('',#160,#160,#180,.T.);
#180 = ( BOUNDED_CURVE() B_SPLINE_CURVE(2,(#181,#182,#183,#184,#185,#186
,#187),.UNSPECIFIED.,.T.,.F.) B_SPLINE_CURVE_WITH_KNOTS((3,2,2,3),(
    3.14159265359,5.235987755983,7.330382858376,9.424777960769),
.PIECEWISE_BEZIER_KNOTS.) CURVE() GEOMETRIC_REPRESENTATION_ITEM() 
RATIONAL_B_SPLINE_CURVE((1.,0.5,1.,0.5,1.,0.5,1.)) REPRESENTATION_ITEM(
  '') );
#181 = CARTESIAN_POINT('',(11.748095907877,-45.64974409917,
    7.384517427808));
#182 = CARTESIAN_POINT('',(11.748095907877,-45.64974409917,
    14.942457058101));
#183 = CARTESIAN_POINT('',(18.29346362798,-45.64974409917,
    11.163487242955));
#184 = CARTESIAN_POINT('',(24.838831348082,-45.64974409917,
    7.384517427808));
#185 = CARTESIAN_POINT('',(18.29346362798,-45.64974409917,3.605547612662
    ));
#186 = CARTESIAN_POINT('',(11.748095907877,-45.64974409917,
    -0.173422202485));
#187 = CARTESIAN_POINT('',(11.748095907877,-45.64974409917,
    7.384517427808));
#188 = ( BOUNDED_SURFACE() B_SPLINE_SURFACE(2,1,(
    (#189,#190)
    ,(#191,#192)
    ,(#193,#194)
    ,(#195,#196)
    ,(#197,#198)
    ,(#199,#200)
    ,(#201,#202)
    ,(#203,#204)
,(#205,#206
    )),.UNSPECIFIED.,.T.,.F.,.F.) B_SPLINE_SURFACE_WITH_KNOTS((3,2,2,2,3
    ),(2,2),(-3.14159265359,-2.094395102393,0.,2.094395102393,
    3.14159265359),(-2.,20.),.UNSPECIFIED.) 
GEOMETRIC_REPRESENTATION_ITEM() RATIONAL_B_SPLINE_SURFACE((
    (0.75,0.75)
    ,(0.75,0.75)
    ,(1.,1.)
    ,(0.5,0.5)
    ,(1.,1.)
    ,(0.5,0.5)
    ,(1.,1.)
    ,(0.75,0.75)
,(0.75,0.75))) REPRESENTATION_ITEM('') SURFACE() );
#189 = CARTESIAN_POINT('',(11.748095907877,-16.11167438794,
    7.384517427808));
#190 = CARTESIAN_POINT('',(11.748095907877,-45.64974409917,
    7.384517427808));
#191 = CARTESIAN_POINT('',(11.748095907877,-16.11167438794,
    4.865204217711));
#192 = CARTESIAN_POINT('',(11.748095907877,-45.64974409917,
    4.865204217711));
#193 = CARTESIAN_POINT('',(13.929885147911,-16.11167438794,
    3.605547612662));
#194 = CARTESIAN_POINT('',(13.929885147911,-45.64974409917,
    3.605547612662));
#195 = CARTESIAN_POINT('',(20.475252868014,-16.11167438794,
    -0.173422202485));
#196 = CARTESIAN_POINT('',(20.475252868014,-45.64974409917,
    -0.173422202485));
#197 = CARTESIAN_POINT('',(20.475252868014,-16.11167438794,
    7.384517427808));
#198 = CARTESIAN_POINT('',(20.475252868014,-45.64974409917,
    7.384517427808));
#199 = CARTESIAN_POINT('',(20.475252868014,-16.11167438794,
    14.942457058101));
#200 = CARTESIAN_POINT('',(20.475252868014,-45.64974409917,
    14.942457058101));
#201 = CARTESIAN_POINT('',(13.929885147911,-16.11167438794,
    11.163487242955));
#202 = CARTESIAN_POINT('',(13.929885147911,-45.64974409917,
    11.163487242955));
#203 = CARTESIAN_POINT('',(11.748095907877,-16.11167438794,
    9.903830637906));
#204 = CARTESIAN_POINT('',(11.748095907877,-45.64974409917,
    9.903830637906));
#205 = CARTESIAN_POINT('',(11.748095907877,-16.11167438794,
    7.384517427808));
#206 = CARTESIAN_POINT('',(11.748095907877,-45.64974409917,
    7.384517427808));
#207 = ADVANCED_FACE('',(#208),#240,.T.);
#208 = FACE_BOUND('',#209,.T.);
#209 = EDGE_LOOP('',(#210,#222,#229,#239));
#210 = ORIENTED_EDGE('',*,*,#211,.F.);
#211 = EDGE_CURVE('',#212,#212,#214,.T.);
#212 = VERTEX_POINT('',#213);
#213 = CARTESIAN_POINT('',(9.398476726301,-45.64974409917,7.384517427808
    ));
#214 = ( BOUNDED_CURVE() B_SPLINE_CURVE(2,(#215,#216,#217,#218,#219,#220
,#221),.UNSPECIFIED.,.T.,.F.) B_SPLINE_CURVE_WITH_KNOTS((3,2,2,3),(
    3.14159265359,5.235987755983,7.330382858376,9.424777960769),
.PIECEWISE_BEZIER_KNOTS.) CURVE() GEOMETRIC_REPRESENTATION_ITEM() 
RATIONAL_B_SPLINE_CURVE((1.,0.5,1.,0.5,1.,0.5,1.)) REPRESENTATION_ITEM(
  '') );
#215 = CARTESIAN_POINT('',(9.398476726301,-45.64974409917,7.384517427808
    ));
#216 = CARTESIAN_POINT('',(9.398476726301,-45.64974409917,
    -4.243082003412));
#217 = CARTESIAN_POINT('',(19.468273218767,-45.64974409917,
    1.570717712198));
#218 = CARTESIAN_POINT('',(29.538069711233,-45.64974409917,
    7.384517427808));
#219 = CARTESIAN_POINT('',(19.468273218767,-45.64974409917,
    13.198317143418));
#220 = CARTESIAN_POINT('',(9.398476726301,-45.64974409917,
    19.012116859028));
#221 = CARTESIAN_POINT('',(9.398476726301,-45.64974409917,7.384517427808
    ));
#222 = ORIENTED_EDGE('',*,*,#223,.T.);
#223 = EDGE_CURVE('',#212,#224,#226,.T.);
#224 = VERTEX_POINT('',#225);
#225 = CARTESIAN_POINT('',(9.398476726301,-18.7969534526,7.384517427808)
  );
#226 = B_SPLINE_CURVE_WITH_KNOTS('',1,(#227,#228),.UNSPECIFIED.,.F.,.F.,
  (2,2),(-20.,0.),.PIECEWISE_BEZIER_KNOTS.);
#227 = CARTESIAN_POINT('',(9.398476726301,-45.64974409917,7.384517427808
    ));
#228 = CARTESIAN_POINT('',(9.398476726301,-18.7969534526,7.384517427808)
  );
#229 = ORIENTED_EDGE('',*,*,#230,.F.);
#230 = EDGE_CURVE('',#224,#224,#231,.T.);
#231 = ( BOUNDED_CURVE() B_SPLINE_CURVE(2,(#232,#233,#234,#235,#236,#237
,#238),.UNSPECIFIED.,.T.,.F.) B_SPLINE_CURVE_WITH_KNOTS((3,2,2,3),(
    3.14159265359,5.235987755983,7.330382858376,9.424777960769),
.PIECEWISE_BEZIER_KNOTS.) CURVE() GEOMETRIC_REPRESENTATION_ITEM() 
RATIONAL_B_SPLINE_CURVE((1.,0.5,1.,0.5,1.,0.5,1.)) REPRESENTATION_ITEM(
  '') );
#232 = CARTESIAN_POINT('',(9.398476726301,-18.7969534526,7.384517427808)
  );
#233 = CARTESIAN_POINT('',(9.398476726301,-18.7969534526,19.012116859028
    ));
#234 = CARTESIAN_POINT('',(19.468273218767,-18.7969534526,
    13.198317143418));
#235 = CARTESIAN_POINT('',(29.538069711233,-18.7969534526,7.384517427808
    ));
#236 = CARTESIAN_POINT('',(19.468273218767,-18.7969534526,1.570717712198
    ));
#237 = CARTESIAN_POINT('',(9.398476726301,-18.7969534526,-4.243082003412
    ));
#238 = CARTESIAN_POINT('',(9.398476726301,-18.7969534526,7.384517427808)
  );
#239 = ORIENTED_EDGE('',*,*,#223,.F.);
#240 = ( BOUNDED_SURFACE() B_SPLINE_SURFACE(2,1,(
    (#241,#242)
    ,(#243,#244)
    ,(#245,#246)
    ,(#247,#248)
    ,(#249,#250)
    ,(#251,#252)
    ,(#253,#254)
    ,(#255,#256)
,(#257,#258
    )),.UNSPECIFIED.,.T.,.F.,.F.) B_SPLINE_SURFACE_WITH_KNOTS((3,2,2,2,3
    ),(2,2),(-3.14159265359,-2.094395102393,0.,2.094395102393,
3.14159265359),(0.,20.),.UNSPECIFIED.) GEOMETRIC_REPRESENTATION_ITEM() 
RATIONAL_B_SPLINE_SURFACE((
    (0.75,0.75)
    ,(0.75,0.75)
    ,(1.,1.)
    ,(0.5,0.5)
    ,(1.,1.)
    ,(0.5,0.5)
    ,(1.,1.)
    ,(0.75,0.75)
,(0.75,0.75))) REPRESENTATION_ITEM('') SURFACE() );
#241 = CARTESIAN_POINT('',(9.398476726301,-18.7969534526,7.384517427808)
  );
#242 = CARTESIAN_POINT('',(9.398476726301,-45.64974409917,7.384517427808
    ));
#243 = CARTESIAN_POINT('',(9.398476726301,-18.7969534526,3.508650950735)
  );
#244 = CARTESIAN_POINT('',(9.398476726301,-45.64974409917,3.508650950735
    ));
#245 = CARTESIAN_POINT('',(12.755075557123,-18.7969534526,1.570717712198
    ));
#246 = CARTESIAN_POINT('',(12.755075557123,-45.64974409917,
    1.570717712198));
#247 = CARTESIAN_POINT('',(22.824872049589,-18.7969534526,
    -4.243082003412));
#248 = CARTESIAN_POINT('',(22.824872049589,-45.64974409917,
    -4.243082003412));
#249 = CARTESIAN_POINT('',(22.824872049589,-18.7969534526,7.384517427808
    ));
#250 = CARTESIAN_POINT('',(22.824872049589,-45.64974409917,
    7.384517427808));
#251 = CARTESIAN_POINT('',(22.824872049589,-18.7969534526,
    19.012116859028));
#252 = CARTESIAN_POINT('',(22.824872049589,-45.64974409917,
    19.012116859028));
#253 = CARTESIAN_POINT('',(12.755075557123,-18.7969534526,
    13.198317143418));
#254 = CARTESIAN_POINT('',(12.755075557123,-45.64974409917,
    13.198317143418));
#255 = CARTESIAN_POINT('',(9.398476726301,-18.7969534526,11.260383904882
    ));
#256 = CARTESIAN_POINT('',(9.398476726301,-45.64974409917,
    11.260383904882));
#257 = CARTESIAN_POINT('',(9.398476726301,-18.7969534526,7.384517427808)
  );
#258 = CARTESIAN_POINT('',(9.398476726301,-45.64974409917,7.384517427808
    ));
#259 = ADVANCED_FACE('',(#260,#263),#266,.T.);
#260 = FACE_BOUND('',#261,.T.);
#261 = EDGE_LOOP('',(#262));
#262 = ORIENTED_EDGE('',*,*,#211,.T.);
#263 = FACE_BOUND('',#264,.T.);
#264 = EDGE_LOOP('',(#265));
#265 = ORIENTED_EDGE('',*,*,#179,.T.);
#266 = B_SPLINE_SURFACE_WITH_KNOTS('',1,1,(
    (#267,#268)
    ,(#269,#270
    )),.UNSPECIFIED.,.F.,.F.,.F.,(2,2),(2,2),(-5.,5.),(-5.,5.),
  .PIECEWISE_BEZIER_KNOTS.);
#267 = CARTESIAN_POINT('',(9.398476726301,-45.64974409917,0.671319766164
    ));
#268 = CARTESIAN_POINT('',(9.398476726301,-45.64974409917,
    14.097715089452));
#269 = CARTESIAN_POINT('',(22.824872049589,-45.64974409917,
    0.671319766164));
#270 = CARTESIAN_POINT('',(22.824872049589,-45.64974409917,
    14.097715089452));
#271 = ADVANCED_FACE('',(#272,#294),#297,.T.);
#272 = FACE_BOUND('',#273,.T.);
#273 = EDGE_LOOP('',(#274,#281,#288,#293));
#274 = ORIENTED_EDGE('',*,*,#275,.T.);
#275 = EDGE_CURVE('',#60,#276,#278,.T.);
#276 = VERTEX_POINT('',#277);
#277 = CARTESIAN_POINT('',(0.,-18.7969534526,0.));
#278 = B_SPLINE_CURVE_WITH_KNOTS('',1,(#279,#280),.UNSPECIFIED.,.F.,.F.,
  (2,2),(0.,11.),.PIECEWISE_BEZIER_KNOTS.);
#279 = CARTESIAN_POINT('',(0.,-18.7969534526,14.769034855617));
#280 = CARTESIAN_POINT('',(0.,-18.7969534526,0.));
#281 = ORIENTED_EDGE('',*,*,#282,.T.);
#282 = EDGE_CURVE('',#276,#283,#285,.T.);
#283 = VERTEX_POINT('',#284);
#284 = CARTESIAN_POINT('',(32.223348775891,-18.7969534526,0.));
#285 = B_SPLINE_CURVE_WITH_KNOTS('',1,(#286,#287),.UNSPECIFIED.,.F.,.F.,
  (2,2),(-24.,0.),.PIECEWISE_BEZIER_KNOTS.);
#286 = CARTESIAN_POINT('',(0.,-18.7969534526,0.));
#287 = CARTESIAN_POINT('',(32.223348775891,-18.7969534526,0.));
#288 = ORIENTED_EDGE('',*,*,#289,.T.);
#289 = EDGE_CURVE('',#283,#67,#290,.T.);
#290 = B_SPLINE_CURVE_WITH_KNOTS('',1,(#291,#292),.UNSPECIFIED.,.F.,.F.,
  (2,2),(0.,11.),.PIECEWISE_BEZIER_KNOTS.);
#291 = CARTESIAN_POINT('',(32.223348775891,-18.7969534526,0.));
#292 = CARTESIAN_POINT('',(32.223348775891,-18.7969534526,
    14.769034855617));
#293 = ORIENTED_EDGE('',*,*,#66,.T.);
#294 = FACE_BOUND('',#295,.T.);
#295 = EDGE_LOOP('',(#296));
#296 = ORIENTED_EDGE('',*,*,#230,.T.);
#297 = B_SPLINE_SURFACE_WITH_KNOTS('',1,1,(
    (#298,#299)
    ,(#300,#301
    )),.UNSPECIFIED.,.F.,.F.,.F.,(2,2),(2,2),(-5.5,5.5),(-12.,12.),
  .PIECEWISE_BEZIER_KNOTS.);
#298 = CARTESIAN_POINT('',(0.,-18.7969534526,14.769034855617));
#299 = CARTESIAN_POINT('',(32.223348775891,-18.7969534526,
    14.769034855617));
#300 = CARTESIAN_POINT('',(0.,-18.7969534526,0.));
#301 = CARTESIAN_POINT('',(32.223348775891,-18.7969534526,0.));
#302 = ADVANCED_FACE('',(#303,#313),#316,.F.);
#303 = FACE_BOUND('',#304,.T.);
#304 = EDGE_LOOP('',(#305,#310,#311,#312));
#305 = ORIENTED_EDGE('',*,*,#306,.F.);
#306 = EDGE_CURVE('',#24,#138,#307,.T.);
#307 = B_SPLINE_CURVE_WITH_KNOTS('',1,(#308,#309),.UNSPECIFIED.,.F.,.F.,
  (2,2),(-20.05,5.E-02),.PIECEWISE_BEZIER_KNOTS.);
#308 = CARTESIAN_POINT('',(2.618147088041,-16.11167438794,2.685279064658
    ));
#309 = CARTESIAN_POINT('',(29.60520168785,-16.11167438794,2.685279064658
    ));
#310 = ORIENTED_EDGE('',*,*,#44,.T.);
#311 = ORIENTED_EDGE('',*,*,#87,.F.);
#312 = ORIENTED_EDGE('',*,*,#144,.T.);
#313 = FACE_BOUND('',#314,.T.);
#314 = EDGE_LOOP('',(#315));
#315 = ORIENTED_EDGE('',*,*,#168,.T.);
#316 = B_SPLINE_SURFACE_WITH_KNOTS('',1,1,(
    (#317,#318)
    ,(#319,#320
    )),.UNSPECIFIED.,.F.,.F.,.F.,(2,2),(2,2),(-10.05,10.05),(-3.5,5.5),
  .PIECEWISE_BEZIER_KNOTS.);
#317 = CARTESIAN_POINT('',(2.618147088041,-16.11167438794,2.685279064658
    ));
#318 = CARTESIAN_POINT('',(2.618147088041,-16.11167438794,
    14.769034855617));
#319 = CARTESIAN_POINT('',(29.60520168785,-16.11167438794,2.685279064658
    ));
#320 = CARTESIAN_POINT('',(29.60520168785,-16.11167438794,
    14.769034855617));
#321 = ADVANCED_FACE('',(#322),#344,.T.);
#322 = FACE_BOUND('',#323,.T.);
#323 = EDGE_LOOP('',(#324,#333,#338,#339));
#324 = ORIENTED_EDGE('',*,*,#325,.T.);
#325 = EDGE_CURVE('',#326,#328,#330,.T.);
#326 = VERTEX_POINT('',#327);
#327 = CARTESIAN_POINT('',(32.223348775891,22.824872049589,0.));
#328 = VERTEX_POINT('',#329);
#329 = CARTESIAN_POINT('',(1.233194404256E-15,22.824872049589,0.));
#330 = B_SPLINE_CURVE_WITH_KNOTS('',1,(#331,#332),.UNSPECIFIED.,.F.,.F.,
  (2,2),(0.,24.),.PIECEWISE_BEZIER_KNOTS.);
#331 = CARTESIAN_POINT('',(32.223348775891,22.824872049589,0.));
#332 = CARTESIAN_POINT('',(0.,22.824872049589,0.));
#333 = ORIENTED_EDGE('',*,*,#334,.T.);
#334 = EDGE_CURVE('',#328,#58,#335,.T.);
#335 = B_SPLINE_CURVE_WITH_KNOTS('',1,(#336,#337),.UNSPECIFIED.,.F.,.F.,
  (2,2),(0.,11.),.PIECEWISE_BEZIER_KNOTS.);
#336 = CARTESIAN_POINT('',(1.233194404256E-15,22.824872049589,0.));
#337 = CARTESIAN_POINT('',(1.233194404256E-15,22.824872049589,
    14.769034855617));
#338 = ORIENTED_EDGE('',*,*,#80,.F.);
#339 = ORIENTED_EDGE('',*,*,#340,.F.);
#340 = EDGE_CURVE('',#326,#74,#341,.T.);
#341 = B_SPLINE_CURVE_WITH_KNOTS('',1,(#342,#343),.UNSPECIFIED.,.F.,.F.,
  (2,2),(0.,11.),.PIECEWISE_BEZIER_KNOTS.);
#342 = CARTESIAN_POINT('',(32.223348775891,22.824872049589,0.));
#343 = CARTESIAN_POINT('',(32.223348775891,22.824872049589,
    14.769034855617));
#344 = B_SPLINE_SURFACE_WITH_KNOTS('',1,1,(
    (#345,#346)
    ,(#347,#348
    )),.UNSPECIFIED.,.F.,.F.,.F.,(2,2),(2,2),(0.,24.),(0.,11.),
  .PIECEWISE_BEZIER_KNOTS.);
#345 = CARTESIAN_POINT('',(32.223348775891,22.824872049589,0.));
#346 = CARTESIAN_POINT('',(32.223348775891,22.824872049589,
    14.769034855617));
#347 = CARTESIAN_POINT('',(0.,22.824872049589,0.));
#348 = CARTESIAN_POINT('',(0.,22.824872049589,14.769034855617));
#349 = ADVANCED_FACE('',(#350),#360,.T.);
#350 = FACE_BOUND('',#351,.T.);
#351 = EDGE_LOOP('',(#352,#357,#358,#359));
#352 = ORIENTED_EDGE('',*,*,#353,.F.);
#353 = EDGE_CURVE('',#326,#283,#354,.T.);
#354 = B_SPLINE_CURVE_WITH_KNOTS('',1,(#355,#356),.UNSPECIFIED.,.F.,.F.,
  (2,2),(-17.,14.),.PIECEWISE_BEZIER_KNOTS.);
#355 = CARTESIAN_POINT('',(32.223348775891,22.824872049589,0.));
#356 = CARTESIAN_POINT('',(32.223348775891,-18.7969534526,0.));
#357 = ORIENTED_EDGE('',*,*,#340,.T.);
#358 = ORIENTED_EDGE('',*,*,#73,.T.);
#359 = ORIENTED_EDGE('',*,*,#289,.F.);
#360 = B_SPLINE_SURFACE_WITH_KNOTS('',1,1,(
    (#361,#362)
    ,(#363,#364
    )),.UNSPECIFIED.,.F.,.F.,.F.,(2,2),(2,2),(-14.,17.),(0.,11.),
  .PIECEWISE_BEZIER_KNOTS.);
#361 = CARTESIAN_POINT('',(32.223348775891,-18.7969534526,0.));
#362 = CARTESIAN_POINT('',(32.223348775891,-18.7969534526,
    14.769034855617));
#363 = CARTESIAN_POINT('',(32.223348775891,22.824872049589,0.));
#364 = CARTESIAN_POINT('',(32.223348775891,22.824872049589,
    14.769034855617));
#365 = ADVANCED_FACE('',(#366),#376,.T.);
#366 = FACE_BOUND('',#367,.T.);
#367 = EDGE_LOOP('',(#368,#373,#374,#375));
#368 = ORIENTED_EDGE('',*,*,#369,.T.);
#369 = EDGE_CURVE('',#328,#276,#370,.T.);
#370 = B_SPLINE_CURVE_WITH_KNOTS('',1,(#371,#372),.UNSPECIFIED.,.F.,.F.,
  (2,2),(0.,31.),.PIECEWISE_BEZIER_KNOTS.);
#371 = CARTESIAN_POINT('',(1.233194404256E-15,22.824872049589,0.));
#372 = CARTESIAN_POINT('',(-1.015571862329E-15,-18.7969534526,0.));
#373 = ORIENTED_EDGE('',*,*,#275,.F.);
#374 = ORIENTED_EDGE('',*,*,#57,.F.);
#375 = ORIENTED_EDGE('',*,*,#334,.F.);
#376 = B_SPLINE_SURFACE_WITH_KNOTS('',1,1,(
    (#377,#378)
    ,(#379,#380
    )),.UNSPECIFIED.,.F.,.F.,.F.,(2,2),(2,2),(0.,31.),(0.,11.),
  .PIECEWISE_BEZIER_KNOTS.);
#377 = CARTESIAN_POINT('',(1.233194404256E-15,22.824872049589,0.));
#378 = CARTESIAN_POINT('',(1.233194404256E-15,22.824872049589,
    14.769034855617));
#379 = CARTESIAN_POINT('',(-1.015571862329E-15,-18.7969534526,0.));
#380 = CARTESIAN_POINT('',(-1.015571862329E-15,-18.7969534526,
    14.769034855617));
#381 = ADVANCED_FACE('',(#382),#388,.T.);
#382 = FACE_BOUND('',#383,.T.);
#383 = EDGE_LOOP('',(#384,#385,#386,#387));
#384 = ORIENTED_EDGE('',*,*,#306,.T.);
#385 = ORIENTED_EDGE('',*,*,#137,.T.);
#386 = ORIENTED_EDGE('',*,*,#115,.T.);
#387 = ORIENTED_EDGE('',*,*,#21,.T.);
#388 = B_SPLINE_SURFACE_WITH_KNOTS('',1,1,(
    (#389,#390)
    ,(#391,#392
    )),.UNSPECIFIED.,.F.,.F.,.F.,(2,2),(2,2),(-10.05,10.05),(-20.5,6.55)
  ,.PIECEWISE_BEZIER_KNOTS.);
#389 = CARTESIAN_POINT('',(2.618147088041,-16.11167438794,2.685279064658
    ));
#390 = CARTESIAN_POINT('',(2.618147088041,20.206724961548,2.685279064658
    ));
#391 = CARTESIAN_POINT('',(29.60520168785,-16.11167438794,2.685279064658
    ));
#392 = CARTESIAN_POINT('',(29.60520168785,20.206724961548,2.685279064658
    ));
#393 = ADVANCED_FACE('',(#394),#400,.F.);
#394 = FACE_BOUND('',#395,.T.);
#395 = EDGE_LOOP('',(#396,#397,#398,#399));
#396 = ORIENTED_EDGE('',*,*,#369,.F.);
#397 = ORIENTED_EDGE('',*,*,#325,.F.);
#398 = ORIENTED_EDGE('',*,*,#353,.T.);
#399 = ORIENTED_EDGE('',*,*,#282,.F.);
#400 = B_SPLINE_SURFACE_WITH_KNOTS('',1,1,(
    (#401,#402)
    ,(#403,#404
    )),.UNSPECIFIED.,.F.,.F.,.F.,(2,2),(2,2),(-12.,12.),(-22.5,8.5),
  .PIECEWISE_BEZIER_KNOTS.);
#401 = CARTESIAN_POINT('',(0.,-18.7969534526,0.));
#402 = CARTESIAN_POINT('',(0.,22.824872049589,0.));
#403 = CARTESIAN_POINT('',(32.223348775891,-18.7969534526,0.));
#404 = CARTESIAN_POINT('',(32.223348775891,22.824872049589,0.));
#405 = ( GEOMETRIC_REPRESENTATION_CONTEXT(3) 
GLOBAL_UNCERTAINTY_ASSIGNED_CONTEXT((#409)) GLOBAL_UNIT_ASSIGNED_CONTEXT
((#406,#407,#408)) REPRESENTATION_CONTEXT('Context #1',
  '3D Context with UNIT and UNCERTAINTY') );
#406 = ( LENGTH_UNIT() NAMED_UNIT(*) SI_UNIT(.MILLI.,.METRE.) );
#407 = ( NAMED_UNIT(*) PLANE_ANGLE_UNIT() SI_UNIT($,.RADIAN.) );
#408 = ( NAMED_UNIT(*) SI_UNIT($,.STERADIAN.) SOLID_ANGLE_UNIT() );
#409 = UNCERTAINTY_MEASURE_WITH_UNIT(LENGTH_MEASURE(2.E-07),#406,
  'distance_accuracy_value','confusion accuracy');
#410 = PRODUCT_RELATED_PRODUCT_CATEGORY('part',$,(#7));
ENDSEC;
END-ISO-10303-21;
