ISO-10303-21;
HEADER;
FILE_DESCRIPTION(('FreeCAD Model'),'2;1');
FILE_NAME('Open CASCADE Shape Model','2025-05-03T17:44:52',('FreeCAD'),(
    'FreeCAD'),'Open CASCADE STEP processor 7.6','FreeCAD','Unknown');
FILE_SCHEMA(('AUTOMOTIVE_DESIGN { 1 0 10303 214 1 1 1 1 }'));
ENDSEC;
DATA;
#1 = APPLICATION_PROTOCOL_DEFINITION('international standard',
  'automotive_design',2000,#2);
#2 = APPLICATION_CONTEXT(
  'core data for automotive mechanical design processes');
#3 = SHAPE_DEFINITION_REPRESENTATION(#4,#10);
#4 = PRODUCT_DEFINITION_SHAPE('','',#5);
#5 = PRODUCT_DEFINITION('design','',#6,#9);
#6 = PRODUCT_DEFINITION_FORMATION('','',#7);
#7 = PRODUCT('Open CASCADE STEP translator 7.6 1',
  'Open CASCADE STEP translator 7.6 1','',(#8));
#8 = PRODUCT_CONTEXT('',#2,'mechanical');
#9 = PRODUCT_DEFINITION_CONTEXT('part definition',#2,'design');
#10 = ADVANCED_BREP_SHAPE_REPRESENTATION('',(#11,#15),#353);
#11 = AXIS2_PLACEMENT_3D('',#12,#13,#14);
#12 = CARTESIAN_POINT('',(0.,0.,0.));
#13 = DIRECTION('',(0.,0.,1.));
#14 = DIRECTION('',(1.,0.,-0.));
#15 = MANIFOLD_SOLID_BREP('',#16);
#16 = CLOSED_SHELL('',(#17,#65,#106,#179,#201,#217,#235,#247,#275,#300,
    #322,#341));
#17 = ADVANCED_FACE('',(#18),#50,.T.);
#18 = FACE_BOUND('',#19,.T.);
#19 = EDGE_LOOP('',(#20,#32,#39,#49));
#20 = ORIENTED_EDGE('',*,*,#21,.T.);
#21 = EDGE_CURVE('',#22,#22,#24,.T.);
#22 = VERTEX_POINT('',#23);
#23 = CARTESIAN_POINT('',(78.307659384067,0.,0.));
#24 = ( BOUNDED_CURVE() B_SPLINE_CURVE(2,(#25,#26,#27,#28,#29,#30,#31),
.UNSPECIFIED.,.T.,.F.) B_SPLINE_CURVE_WITH_KNOTS((1,2,2,2,2,1),(
    -2.094395102393,0.,2.094395102393,4.188790204786,6.28318530718,
8.377580409573),.UNSPECIFIED.) CURVE() GEOMETRIC_REPRESENTATION_ITEM() 
RATIONAL_B_SPLINE_CURVE((1.,0.5,1.,0.5,1.,0.5,1.)) REPRESENTATION_ITEM(
  '') );
#25 = CARTESIAN_POINT('',(78.307659384067,0.,0.));
#26 = CARTESIAN_POINT('',(78.307659384067,135.632844675,0.));
#27 = CARTESIAN_POINT('',(-39.15382969203,67.816422337501,0.));
#28 = CARTESIAN_POINT('',(-156.6153187681,1.917984488268E-14,0.));
#29 = CARTESIAN_POINT('',(-39.15382969203,-67.8164223375,0.));
#30 = CARTESIAN_POINT('',(78.307659384066,-135.632844675,0.));
#31 = CARTESIAN_POINT('',(78.307659384067,0.,0.));
#32 = ORIENTED_EDGE('',*,*,#33,.T.);
#33 = EDGE_CURVE('',#22,#34,#36,.T.);
#34 = VERTEX_POINT('',#35);
#35 = CARTESIAN_POINT('',(78.307659384067,0.,10.441021251209));
#36 = B_SPLINE_CURVE_WITH_KNOTS('',1,(#37,#38),.UNSPECIFIED.,.F.,.F.,(2,
    2),(0.,10.),.PIECEWISE_BEZIER_KNOTS.);
#37 = CARTESIAN_POINT('',(78.307659384067,0.,0.));
#38 = CARTESIAN_POINT('',(78.307659384067,0.,10.441021251209));
#39 = ORIENTED_EDGE('',*,*,#40,.F.);
#40 = EDGE_CURVE('',#34,#34,#41,.T.);
#41 = ( BOUNDED_CURVE() B_SPLINE_CURVE(2,(#42,#43,#44,#45,#46,#47,#48),
.UNSPECIFIED.,.T.,.F.) B_SPLINE_CURVE_WITH_KNOTS((1,2,2,2,2,1),(
    -2.094395102393,0.,2.094395102393,4.188790204786,6.28318530718,
8.377580409573),.UNSPECIFIED.) CURVE() GEOMETRIC_REPRESENTATION_ITEM() 
RATIONAL_B_SPLINE_CURVE((1.,0.5,1.,0.5,1.,0.5,1.)) REPRESENTATION_ITEM(
  '') );
#42 = CARTESIAN_POINT('',(78.307659384067,0.,10.441021251209));
#43 = CARTESIAN_POINT('',(78.307659384067,135.632844675,10.441021251209)
  );
#44 = CARTESIAN_POINT('',(-39.15382969203,67.816422337501,
    10.441021251209));
#45 = CARTESIAN_POINT('',(-156.6153187681,1.917984488268E-14,
    10.441021251209));
#46 = CARTESIAN_POINT('',(-39.15382969203,-67.8164223375,10.441021251209
    ));
#47 = CARTESIAN_POINT('',(78.307659384066,-135.632844675,10.441021251209
    ));
#48 = CARTESIAN_POINT('',(78.307659384067,0.,10.441021251209));
#49 = ORIENTED_EDGE('',*,*,#33,.F.);
#50 = ( BOUNDED_SURFACE() B_SPLINE_SURFACE(2,1,(
    (#51,#52)
    ,(#53,#54)
    ,(#55,#56)
    ,(#57,#58)
    ,(#59,#60)
    ,(#61,#62)
,(#63,#64
    )),.UNSPECIFIED.,.T.,.F.,.F.) B_SPLINE_SURFACE_WITH_KNOTS((1,2,2,2,2
    ,1),(2,2),(-2.094395102393,0.,2.094395102393,4.188790204786,
    6.28318530718,8.377580409573),(-10.,0.),.UNSPECIFIED.) 
GEOMETRIC_REPRESENTATION_ITEM() RATIONAL_B_SPLINE_SURFACE((
    (1.,1.)
    ,(0.5,0.5)
    ,(1.,1.)
    ,(0.5,0.5)
    ,(1.,1.)
    ,(0.5,0.5)
,(1.,1.))) REPRESENTATION_ITEM('') SURFACE() );
#51 = CARTESIAN_POINT('',(78.307659384067,0.,10.441021251209));
#52 = CARTESIAN_POINT('',(78.307659384067,0.,0.));
#53 = CARTESIAN_POINT('',(78.307659384067,-135.632844675,10.441021251209
    ));
#54 = CARTESIAN_POINT('',(78.307659384067,-135.632844675,0.));
#55 = CARTESIAN_POINT('',(-39.15382969203,-67.8164223375,10.441021251209
    ));
#56 = CARTESIAN_POINT('',(-39.15382969203,-67.8164223375,0.));
#57 = CARTESIAN_POINT('',(-156.6153187681,-1.917984488268E-14,
    10.441021251209));
#58 = CARTESIAN_POINT('',(-156.6153187681,-1.917984488268E-14,0.));
#59 = CARTESIAN_POINT('',(-39.15382969203,67.816422337501,
    10.441021251209));
#60 = CARTESIAN_POINT('',(-39.15382969203,67.816422337501,0.));
#61 = CARTESIAN_POINT('',(78.307659384066,135.632844675,10.441021251209)
  );
#62 = CARTESIAN_POINT('',(78.307659384066,135.632844675,0.));
#63 = CARTESIAN_POINT('',(78.307659384067,0.,10.441021251209));
#64 = CARTESIAN_POINT('',(78.307659384067,0.,0.));
#65 = ADVANCED_FACE('',(#66,#69),#101,.F.);
#66 = FACE_BOUND('',#67,.F.);
#67 = EDGE_LOOP('',(#68));
#68 = ORIENTED_EDGE('',*,*,#21,.T.);
#69 = FACE_BOUND('',#70,.F.);
#70 = EDGE_LOOP('',(#71,#81,#88,#96));
#71 = ORIENTED_EDGE('',*,*,#72,.T.);
#72 = EDGE_CURVE('',#73,#75,#77,.T.);
#73 = VERTEX_POINT('',#74);
#74 = CARTESIAN_POINT('',(52.205106256044,0.,0.));
#75 = VERTEX_POINT('',#76);
#76 = CARTESIAN_POINT('',(3.19664081378E-15,52.205106256044,0.));
#77 = ( BOUNDED_CURVE() B_SPLINE_CURVE(2,(#78,#79,#80),.UNSPECIFIED.,.F.
,.F.) B_SPLINE_CURVE_WITH_KNOTS((3,3),(0.,1.570796326795),
.PIECEWISE_BEZIER_KNOTS.) CURVE() GEOMETRIC_REPRESENTATION_ITEM() 
RATIONAL_B_SPLINE_CURVE((1.,0.707106781187,1.)) REPRESENTATION_ITEM('') 
  );
#78 = CARTESIAN_POINT('',(52.205106256044,0.,0.));
#79 = CARTESIAN_POINT('',(52.205106256044,52.205106256044,0.));
#80 = CARTESIAN_POINT('',(3.196640813781E-15,52.205106256044,0.));
#81 = ORIENTED_EDGE('',*,*,#82,.T.);
#82 = EDGE_CURVE('',#75,#83,#85,.T.);
#83 = VERTEX_POINT('',#84);
#84 = CARTESIAN_POINT('',(3.835968976537E-15,62.646127507253,0.));
#85 = B_SPLINE_CURVE_WITH_KNOTS('',1,(#86,#87),.UNSPECIFIED.,.F.,.F.,(2,
    2),(0.,10.),.PIECEWISE_BEZIER_KNOTS.);
#86 = CARTESIAN_POINT('',(3.19664081378E-15,52.205106256044,0.));
#87 = CARTESIAN_POINT('',(3.835968976536E-15,62.646127507253,0.));
#88 = ORIENTED_EDGE('',*,*,#89,.F.);
#89 = EDGE_CURVE('',#90,#83,#92,.T.);
#90 = VERTEX_POINT('',#91);
#91 = CARTESIAN_POINT('',(62.646127507253,0.,0.));
#92 = ( BOUNDED_CURVE() B_SPLINE_CURVE(2,(#93,#94,#95),.UNSPECIFIED.,.F.
,.F.) B_SPLINE_CURVE_WITH_KNOTS((3,3),(0.,1.570796326795),
.PIECEWISE_BEZIER_KNOTS.) CURVE() GEOMETRIC_REPRESENTATION_ITEM() 
RATIONAL_B_SPLINE_CURVE((1.,0.707106781187,1.)) REPRESENTATION_ITEM('') 
  );
#93 = CARTESIAN_POINT('',(62.646127507253,0.,0.));
#94 = CARTESIAN_POINT('',(62.646127507253,62.646127507253,0.));
#95 = CARTESIAN_POINT('',(3.835968976537E-15,62.646127507253,0.));
#96 = ORIENTED_EDGE('',*,*,#97,.F.);
#97 = EDGE_CURVE('',#73,#90,#98,.T.);
#98 = B_SPLINE_CURVE_WITH_KNOTS('',1,(#99,#100),.UNSPECIFIED.,.F.,.F.,(2
    ,2),(0.,10.),.PIECEWISE_BEZIER_KNOTS.);
#99 = CARTESIAN_POINT('',(52.205106256044,0.,0.));
#100 = CARTESIAN_POINT('',(62.646127507253,0.,0.));
#101 = B_SPLINE_SURFACE_WITH_KNOTS('',1,1,(
    (#102,#103)
    ,(#104,#105
    )),.UNSPECIFIED.,.F.,.F.,.F.,(2,2),(2,2),(-86.09697230134,
    63.903027698657),(-86.09697230134,63.903027698657),
  .PIECEWISE_BEZIER_KNOTS.);
#102 = CARTESIAN_POINT('',(-78.30765938406,-78.30765938406,0.));
#103 = CARTESIAN_POINT('',(-78.30765938406,78.307659384067,0.));
#104 = CARTESIAN_POINT('',(78.307659384067,-78.30765938406,0.));
#105 = CARTESIAN_POINT('',(78.307659384067,78.307659384067,0.));
#106 = ADVANCED_FACE('',(#107,#110,#142),#174,.T.);
#107 = FACE_BOUND('',#108,.T.);
#108 = EDGE_LOOP('',(#109));
#109 = ORIENTED_EDGE('',*,*,#40,.T.);
#110 = FACE_BOUND('',#111,.T.);
#111 = EDGE_LOOP('',(#112,#121,#129,#136));
#112 = ORIENTED_EDGE('',*,*,#113,.F.);
#113 = EDGE_CURVE('',#114,#116,#118,.T.);
#114 = VERTEX_POINT('',#115);
#115 = CARTESIAN_POINT('',(-31.32306375362,1.917984489048E-15,
    10.441021251209));
#116 = VERTEX_POINT('',#117);
#117 = CARTESIAN_POINT('',(-46.98459563044,5.753953464805E-15,
    10.441021251209));
#118 = B_SPLINE_CURVE_WITH_KNOTS('',1,(#119,#120),.UNSPECIFIED.,.F.,.F.,
  (2,2),(6.748919024723E-31,15.),.PIECEWISE_BEZIER_KNOTS.);
#119 = CARTESIAN_POINT('',(-31.32306375362,2.588864400399E-46,
    10.441021251209));
#120 = CARTESIAN_POINT('',(-46.98459563044,5.753953464805E-15,
    10.441021251209));
#121 = ORIENTED_EDGE('',*,*,#122,.T.);
#122 = EDGE_CURVE('',#114,#123,#125,.T.);
#123 = VERTEX_POINT('',#124);
#124 = CARTESIAN_POINT('',(-15.66151970231,-27.12657596394,
    10.441021251209));
#125 = ( BOUNDED_CURVE() B_SPLINE_CURVE(2,(#126,#127,#128),
.UNSPECIFIED.,.F.,.F.) B_SPLINE_CURVE_WITH_KNOTS((3,3),(3.14159265359,
4.18879065359),.PIECEWISE_BEZIER_KNOTS.) CURVE() 
GEOMETRIC_REPRESENTATION_ITEM() RATIONAL_B_SPLINE_CURVE((1.,
0.866025291584,1.)) REPRESENTATION_ITEM('') );
#126 = CARTESIAN_POINT('',(-31.32306375362,3.835968976537E-15,
    10.441021251209));
#127 = CARTESIAN_POINT('',(-31.32306375362,-18.08438866193,
    10.441021251209));
#128 = CARTESIAN_POINT('',(-15.66151970231,-27.12657596394,
    10.441021251209));
#129 = ORIENTED_EDGE('',*,*,#130,.T.);
#130 = EDGE_CURVE('',#123,#131,#133,.T.);
#131 = VERTEX_POINT('',#132);
#132 = CARTESIAN_POINT('',(-23.49227955346,-40.68986394591,
    10.441021251209));
#133 = B_SPLINE_CURVE_WITH_KNOTS('',1,(#134,#135),.UNSPECIFIED.,.F.,.F.,
  (2,2),(0.,14.999999999998),.PIECEWISE_BEZIER_KNOTS.);
#134 = CARTESIAN_POINT('',(-15.66151970231,-27.12657596394,
    10.441021251209));
#135 = CARTESIAN_POINT('',(-23.49227955347,-40.68986394591,
    10.441021251209));
#136 = ORIENTED_EDGE('',*,*,#137,.F.);
#137 = EDGE_CURVE('',#116,#131,#138,.T.);
#138 = ( BOUNDED_CURVE() B_SPLINE_CURVE(2,(#139,#140,#141),
.UNSPECIFIED.,.F.,.F.) B_SPLINE_CURVE_WITH_KNOTS((3,3),(3.14159265359,
4.18879065359),.PIECEWISE_BEZIER_KNOTS.) CURVE() 
GEOMETRIC_REPRESENTATION_ITEM() RATIONAL_B_SPLINE_CURVE((1.,
0.866025291584,1.)) REPRESENTATION_ITEM('') );
#139 = CARTESIAN_POINT('',(-46.98459563044,5.753953464805E-15,
    10.441021251209));
#140 = CARTESIAN_POINT('',(-46.98459563044,-27.1265829929,
    10.441021251209));
#141 = CARTESIAN_POINT('',(-23.49227955346,-40.68986394592,
    10.441021251209));
#142 = FACE_BOUND('',#143,.T.);
#143 = EDGE_LOOP('',(#144,#154,#161,#169));
#144 = ORIENTED_EDGE('',*,*,#145,.T.);
#145 = EDGE_CURVE('',#146,#148,#150,.T.);
#146 = VERTEX_POINT('',#147);
#147 = CARTESIAN_POINT('',(52.205106256044,0.,10.441021251209));
#148 = VERTEX_POINT('',#149);
#149 = CARTESIAN_POINT('',(3.19664081378E-15,52.205106256044,
    10.441021251209));
#150 = ( BOUNDED_CURVE() B_SPLINE_CURVE(2,(#151,#152,#153),
.UNSPECIFIED.,.F.,.F.) B_SPLINE_CURVE_WITH_KNOTS((3,3),(0.,
1.570796326795),.PIECEWISE_BEZIER_KNOTS.) CURVE() 
GEOMETRIC_REPRESENTATION_ITEM() RATIONAL_B_SPLINE_CURVE((1.,
0.707106781187,1.)) REPRESENTATION_ITEM('') );
#151 = CARTESIAN_POINT('',(52.205106256044,0.,10.441021251209));
#152 = CARTESIAN_POINT('',(52.205106256044,52.205106256044,
    10.441021251209));
#153 = CARTESIAN_POINT('',(3.196640813781E-15,52.205106256044,
    10.441021251209));
#154 = ORIENTED_EDGE('',*,*,#155,.T.);
#155 = EDGE_CURVE('',#148,#156,#158,.T.);
#156 = VERTEX_POINT('',#157);
#157 = CARTESIAN_POINT('',(3.835968976537E-15,62.646127507253,
    10.441021251209));
#158 = B_SPLINE_CURVE_WITH_KNOTS('',1,(#159,#160),.UNSPECIFIED.,.F.,.F.,
  (2,2),(0.,10.),.PIECEWISE_BEZIER_KNOTS.);
#159 = CARTESIAN_POINT('',(3.19664081378E-15,52.205106256044,
    10.441021251209));
#160 = CARTESIAN_POINT('',(3.835968976536E-15,62.646127507253,
    10.441021251209));
#161 = ORIENTED_EDGE('',*,*,#162,.F.);
#162 = EDGE_CURVE('',#163,#156,#165,.T.);
#163 = VERTEX_POINT('',#164);
#164 = CARTESIAN_POINT('',(62.646127507253,0.,10.441021251209));
#165 = ( BOUNDED_CURVE() B_SPLINE_CURVE(2,(#166,#167,#168),
.UNSPECIFIED.,.F.,.F.) B_SPLINE_CURVE_WITH_KNOTS((3,3),(0.,
1.570796326795),.PIECEWISE_BEZIER_KNOTS.) CURVE() 
GEOMETRIC_REPRESENTATION_ITEM() RATIONAL_B_SPLINE_CURVE((1.,
0.707106781187,1.)) REPRESENTATION_ITEM('') );
#166 = CARTESIAN_POINT('',(62.646127507253,0.,10.441021251209));
#167 = CARTESIAN_POINT('',(62.646127507253,62.646127507253,
    10.441021251209));
#168 = CARTESIAN_POINT('',(3.835968976537E-15,62.646127507253,
    10.441021251209));
#169 = ORIENTED_EDGE('',*,*,#170,.F.);
#170 = EDGE_CURVE('',#146,#163,#171,.T.);
#171 = B_SPLINE_CURVE_WITH_KNOTS('',1,(#172,#173),.UNSPECIFIED.,.F.,.F.,
  (2,2),(0.,10.),.PIECEWISE_BEZIER_KNOTS.);
#172 = CARTESIAN_POINT('',(52.205106256044,0.,10.441021251209));
#173 = CARTESIAN_POINT('',(62.646127507253,0.,10.441021251209));
#174 = B_SPLINE_SURFACE_WITH_KNOTS('',1,1,(
    (#175,#176)
    ,(#177,#178
    )),.UNSPECIFIED.,.F.,.F.,.F.,(2,2),(2,2),(-86.09697230134,
    63.903027698657),(-86.09697230134,63.903027698657),
  .PIECEWISE_BEZIER_KNOTS.);
#175 = CARTESIAN_POINT('',(-78.30765938406,-78.30765938406,
    10.441021251209));
#176 = CARTESIAN_POINT('',(-78.30765938406,78.307659384067,
    10.441021251209));
#177 = CARTESIAN_POINT('',(78.307659384067,-78.30765938406,
    10.441021251209));
#178 = CARTESIAN_POINT('',(78.307659384067,78.307659384067,
    10.441021251209));
#179 = ADVANCED_FACE('',(#180),#194,.T.);
#180 = FACE_BOUND('',#181,.T.);
#181 = EDGE_LOOP('',(#182,#183,#188,#189));
#182 = ORIENTED_EDGE('',*,*,#72,.T.);
#183 = ORIENTED_EDGE('',*,*,#184,.T.);
#184 = EDGE_CURVE('',#75,#148,#185,.T.);
#185 = B_SPLINE_CURVE_WITH_KNOTS('',1,(#186,#187),.UNSPECIFIED.,.F.,.F.,
  (2,2),(0.,10.),.PIECEWISE_BEZIER_KNOTS.);
#186 = CARTESIAN_POINT('',(3.19664081378E-15,52.205106256044,0.));
#187 = CARTESIAN_POINT('',(3.19664081378E-15,52.205106256044,
    10.441021251209));
#188 = ORIENTED_EDGE('',*,*,#145,.F.);
#189 = ORIENTED_EDGE('',*,*,#190,.F.);
#190 = EDGE_CURVE('',#73,#146,#191,.T.);
#191 = B_SPLINE_CURVE_WITH_KNOTS('',1,(#192,#193),.UNSPECIFIED.,.F.,.F.,
  (2,2),(0.,10.),.PIECEWISE_BEZIER_KNOTS.);
#192 = CARTESIAN_POINT('',(52.205106256044,0.,0.));
#193 = CARTESIAN_POINT('',(52.205106256044,0.,10.441021251209));
#194 = ( BOUNDED_SURFACE() B_SPLINE_SURFACE(2,1,(
    (#195,#196)
    ,(#197,#198)
,(#199,#200
    )),.UNSPECIFIED.,.F.,.F.,.F.) B_SPLINE_SURFACE_WITH_KNOTS((3,3),(2,2
    ),(4.712388980385,6.28318530718),(-10.,0.),
.PIECEWISE_BEZIER_KNOTS.) GEOMETRIC_REPRESENTATION_ITEM() 
RATIONAL_B_SPLINE_SURFACE((
    (1.,1.)
    ,(0.707106781187,0.707106781187)
,(1.,1.))) REPRESENTATION_ITEM('') SURFACE() );
#195 = CARTESIAN_POINT('',(-9.589922441342E-15,52.205106256044,
    10.441021251209));
#196 = CARTESIAN_POINT('',(-9.589922441342E-15,52.205106256044,0.));
#197 = CARTESIAN_POINT('',(52.205106256044,52.205106256044,
    10.441021251209));
#198 = CARTESIAN_POINT('',(52.205106256044,52.205106256044,0.));
#199 = CARTESIAN_POINT('',(52.205106256044,1.278656325512E-14,
    10.441021251209));
#200 = CARTESIAN_POINT('',(52.205106256044,1.278656325512E-14,0.));
#201 = ADVANCED_FACE('',(#202),#212,.F.);
#202 = FACE_BOUND('',#203,.F.);
#203 = EDGE_LOOP('',(#204,#205,#206,#211));
#204 = ORIENTED_EDGE('',*,*,#184,.T.);
#205 = ORIENTED_EDGE('',*,*,#155,.T.);
#206 = ORIENTED_EDGE('',*,*,#207,.F.);
#207 = EDGE_CURVE('',#83,#156,#208,.T.);
#208 = B_SPLINE_CURVE_WITH_KNOTS('',1,(#209,#210),.UNSPECIFIED.,.F.,.F.,
  (2,2),(0.,10.),.PIECEWISE_BEZIER_KNOTS.);
#209 = CARTESIAN_POINT('',(3.835968976537E-15,62.646127507253,0.));
#210 = CARTESIAN_POINT('',(3.835968976537E-15,62.646127507253,
    10.441021251209));
#211 = ORIENTED_EDGE('',*,*,#82,.F.);
#212 = B_SPLINE_SURFACE_WITH_KNOTS('',1,1,(
    (#213,#214)
    ,(#215,#216
    )),.UNSPECIFIED.,.F.,.F.,.F.,(2,2),(2,2),(0.,10.),(-10.,0.),
  .PIECEWISE_BEZIER_KNOTS.);
#213 = CARTESIAN_POINT('',(3.19664081378E-15,52.205106256044,
    10.441021251209));
#214 = CARTESIAN_POINT('',(3.19664081378E-15,52.205106256044,0.));
#215 = CARTESIAN_POINT('',(3.835968976536E-15,62.646127507253,
    10.441021251209));
#216 = CARTESIAN_POINT('',(3.835968976536E-15,62.646127507253,0.));
#217 = ADVANCED_FACE('',(#218),#228,.F.);
#218 = FACE_BOUND('',#219,.F.);
#219 = EDGE_LOOP('',(#220,#221,#222,#223));
#220 = ORIENTED_EDGE('',*,*,#89,.T.);
#221 = ORIENTED_EDGE('',*,*,#207,.T.);
#222 = ORIENTED_EDGE('',*,*,#162,.F.);
#223 = ORIENTED_EDGE('',*,*,#224,.F.);
#224 = EDGE_CURVE('',#90,#163,#225,.T.);
#225 = B_SPLINE_CURVE_WITH_KNOTS('',1,(#226,#227),.UNSPECIFIED.,.F.,.F.,
  (2,2),(0.,10.),.PIECEWISE_BEZIER_KNOTS.);
#226 = CARTESIAN_POINT('',(62.646127507253,0.,0.));
#227 = CARTESIAN_POINT('',(62.646127507253,0.,10.441021251209));
#228 = ( BOUNDED_SURFACE() B_SPLINE_SURFACE(2,1,(
    (#229,#230)
    ,(#231,#232)
,(#233,#234
    )),.UNSPECIFIED.,.F.,.F.,.F.) B_SPLINE_SURFACE_WITH_KNOTS((3,3),(2,2
    ),(4.712388980385,6.28318530718),(-10.,0.),
.PIECEWISE_BEZIER_KNOTS.) GEOMETRIC_REPRESENTATION_ITEM() 
RATIONAL_B_SPLINE_SURFACE((
    (1.,1.)
    ,(0.707106781187,0.707106781187)
,(1.,1.))) REPRESENTATION_ITEM('') SURFACE() );
#229 = CARTESIAN_POINT('',(-1.150790692961E-14,62.646127507253,
    10.441021251209));
#230 = CARTESIAN_POINT('',(-1.150790692961E-14,62.646127507253,0.));
#231 = CARTESIAN_POINT('',(62.646127507253,62.646127507253,
    10.441021251209));
#232 = CARTESIAN_POINT('',(62.646127507253,62.646127507253,0.));
#233 = CARTESIAN_POINT('',(62.646127507253,1.534387590615E-14,
    10.441021251209));
#234 = CARTESIAN_POINT('',(62.646127507253,1.534387590615E-14,0.));
#235 = ADVANCED_FACE('',(#236),#242,.T.);
#236 = FACE_BOUND('',#237,.T.);
#237 = EDGE_LOOP('',(#238,#239,#240,#241));
#238 = ORIENTED_EDGE('',*,*,#190,.T.);
#239 = ORIENTED_EDGE('',*,*,#170,.T.);
#240 = ORIENTED_EDGE('',*,*,#224,.F.);
#241 = ORIENTED_EDGE('',*,*,#97,.F.);
#242 = B_SPLINE_SURFACE_WITH_KNOTS('',1,1,(
    (#243,#244)
    ,(#245,#246
    )),.UNSPECIFIED.,.F.,.F.,.F.,(2,2),(2,2),(0.,10.),(-10.,0.),
  .PIECEWISE_BEZIER_KNOTS.);
#243 = CARTESIAN_POINT('',(52.205106256044,0.,10.441021251209));
#244 = CARTESIAN_POINT('',(52.205106256044,0.,0.));
#245 = CARTESIAN_POINT('',(62.646127507253,0.,10.441021251209));
#246 = CARTESIAN_POINT('',(62.646127507253,0.,0.));
#247 = ADVANCED_FACE('',(#248),#270,.F.);
#248 = FACE_BOUND('',#249,.F.);
#249 = EDGE_LOOP('',(#250,#257,#264,#269));
#250 = ORIENTED_EDGE('',*,*,#251,.T.);
#251 = EDGE_CURVE('',#114,#252,#254,.T.);
#252 = VERTEX_POINT('',#253);
#253 = CARTESIAN_POINT('',(-31.32306375362,1.917984489048E-15,
    20.882042502418));
#254 = B_SPLINE_CURVE_WITH_KNOTS('',1,(#255,#256),.UNSPECIFIED.,.F.,.F.,
  (2,2),(0.,10.),.PIECEWISE_BEZIER_KNOTS.);
#255 = CARTESIAN_POINT('',(-31.32306375362,1.917984489048E-15,
    10.441021251209));
#256 = CARTESIAN_POINT('',(-31.32306375362,1.917984489048E-15,
    20.882042502418));
#257 = ORIENTED_EDGE('',*,*,#258,.T.);
#258 = EDGE_CURVE('',#252,#259,#261,.T.);
#259 = VERTEX_POINT('',#260);
#260 = CARTESIAN_POINT('',(-46.98459563044,5.753953464805E-15,
    20.882042502418));
#261 = B_SPLINE_CURVE_WITH_KNOTS('',1,(#262,#263),.UNSPECIFIED.,.F.,.F.,
  (2,2),(6.748919024723E-31,15.),.PIECEWISE_BEZIER_KNOTS.);
#262 = CARTESIAN_POINT('',(-31.32306375362,2.588864400399E-46,
    20.882042502418));
#263 = CARTESIAN_POINT('',(-46.98459563044,5.753953464805E-15,
    20.882042502418));
#264 = ORIENTED_EDGE('',*,*,#265,.F.);
#265 = EDGE_CURVE('',#116,#259,#266,.T.);
#266 = B_SPLINE_CURVE_WITH_KNOTS('',1,(#267,#268),.UNSPECIFIED.,.F.,.F.,
  (2,2),(0.,10.),.PIECEWISE_BEZIER_KNOTS.);
#267 = CARTESIAN_POINT('',(-46.98459563044,5.753953464805E-15,
    10.441021251209));
#268 = CARTESIAN_POINT('',(-46.98459563044,5.753953464805E-15,
    20.882042502418));
#269 = ORIENTED_EDGE('',*,*,#113,.F.);
#270 = B_SPLINE_SURFACE_WITH_KNOTS('',1,1,(
    (#271,#272)
    ,(#273,#274
    )),.UNSPECIFIED.,.F.,.F.,.F.,(2,2),(2,2),(0.,15.),(-10.,0.),
  .PIECEWISE_BEZIER_KNOTS.);
#271 = CARTESIAN_POINT('',(-31.32306375362,0.,20.882042502418));
#272 = CARTESIAN_POINT('',(-31.32306375362,0.,10.441021251209));
#273 = CARTESIAN_POINT('',(-46.98459563044,5.753953464805E-15,
    20.882042502418));
#274 = CARTESIAN_POINT('',(-46.98459563044,5.753953464805E-15,
    10.441021251209));
#275 = ADVANCED_FACE('',(#276),#293,.T.);
#276 = FACE_BOUND('',#277,.T.);
#277 = EDGE_LOOP('',(#278,#279,#286,#292));
#278 = ORIENTED_EDGE('',*,*,#137,.T.);
#279 = ORIENTED_EDGE('',*,*,#280,.T.);
#280 = EDGE_CURVE('',#131,#281,#283,.T.);
#281 = VERTEX_POINT('',#282);
#282 = CARTESIAN_POINT('',(-23.49227955346,-40.68986394591,
    20.882042502418));
#283 = B_SPLINE_CURVE_WITH_KNOTS('',1,(#284,#285),.UNSPECIFIED.,.F.,.F.,
  (2,2),(0.,10.),.PIECEWISE_BEZIER_KNOTS.);
#284 = CARTESIAN_POINT('',(-23.49227955346,-40.68986394591,
    10.441021251209));
#285 = CARTESIAN_POINT('',(-23.49227955346,-40.68986394591,
    20.882042502418));
#286 = ORIENTED_EDGE('',*,*,#287,.F.);
#287 = EDGE_CURVE('',#259,#281,#288,.T.);
#288 = ( BOUNDED_CURVE() B_SPLINE_CURVE(2,(#289,#290,#291),
.UNSPECIFIED.,.F.,.F.) B_SPLINE_CURVE_WITH_KNOTS((3,3),(3.14159265359,
4.18879065359),.PIECEWISE_BEZIER_KNOTS.) CURVE() 
GEOMETRIC_REPRESENTATION_ITEM() RATIONAL_B_SPLINE_CURVE((1.,
0.866025291584,1.)) REPRESENTATION_ITEM('') );
#289 = CARTESIAN_POINT('',(-46.98459563044,5.753953464805E-15,
    20.882042502418));
#290 = CARTESIAN_POINT('',(-46.98459563044,-27.1265829929,
    20.882042502418));
#291 = CARTESIAN_POINT('',(-23.49227955346,-40.68986394592,
    20.882042502418));
#292 = ORIENTED_EDGE('',*,*,#265,.F.);
#293 = ( BOUNDED_SURFACE() B_SPLINE_SURFACE(2,1,(
    (#294,#295)
    ,(#296,#297)
,(#298,#299
    )),.UNSPECIFIED.,.F.,.F.,.F.) B_SPLINE_SURFACE_WITH_KNOTS((3,3),(2,2
    ),(2.09439465359,3.14159265359),(-10.,0.),.PIECEWISE_BEZIER_KNOTS.) 
GEOMETRIC_REPRESENTATION_ITEM() RATIONAL_B_SPLINE_SURFACE((
    (1.,1.)
    ,(0.866025291584,0.866025291584)
,(1.,1.))) REPRESENTATION_ITEM('') SURFACE() );
#294 = CARTESIAN_POINT('',(-23.49227955346,-40.68986394592,
    20.882042502418));
#295 = CARTESIAN_POINT('',(-23.49227955346,-40.68986394592,
    10.441021251209));
#296 = CARTESIAN_POINT('',(-46.98459563044,-27.1265829929,
    20.882042502418));
#297 = CARTESIAN_POINT('',(-46.98459563044,-27.1265829929,
    10.441021251209));
#298 = CARTESIAN_POINT('',(-46.98459563044,-5.753953464805E-15,
    20.882042502418));
#299 = CARTESIAN_POINT('',(-46.98459563044,-5.753953464805E-15,
    10.441021251209));
#300 = ADVANCED_FACE('',(#301),#317,.T.);
#301 = FACE_BOUND('',#302,.T.);
#302 = EDGE_LOOP('',(#303,#310,#315,#316));
#303 = ORIENTED_EDGE('',*,*,#304,.T.);
#304 = EDGE_CURVE('',#123,#305,#307,.T.);
#305 = VERTEX_POINT('',#306);
#306 = CARTESIAN_POINT('',(-15.66151970231,-27.12657596394,
    20.882042502418));
#307 = B_SPLINE_CURVE_WITH_KNOTS('',1,(#308,#309),.UNSPECIFIED.,.F.,.F.,
  (2,2),(0.,10.),.PIECEWISE_BEZIER_KNOTS.);
#308 = CARTESIAN_POINT('',(-15.66151970231,-27.12657596394,
    10.441021251209));
#309 = CARTESIAN_POINT('',(-15.66151970231,-27.12657596394,
    20.882042502418));
#310 = ORIENTED_EDGE('',*,*,#311,.T.);
#311 = EDGE_CURVE('',#305,#281,#312,.T.);
#312 = B_SPLINE_CURVE_WITH_KNOTS('',1,(#313,#314),.UNSPECIFIED.,.F.,.F.,
  (2,2),(0.,14.999999999998),.PIECEWISE_BEZIER_KNOTS.);
#313 = CARTESIAN_POINT('',(-15.66151970231,-27.12657596394,
    20.882042502418));
#314 = CARTESIAN_POINT('',(-23.49227955347,-40.68986394591,
    20.882042502418));
#315 = ORIENTED_EDGE('',*,*,#280,.F.);
#316 = ORIENTED_EDGE('',*,*,#130,.F.);
#317 = B_SPLINE_SURFACE_WITH_KNOTS('',1,1,(
    (#318,#319)
    ,(#320,#321
    )),.UNSPECIFIED.,.F.,.F.,.F.,(2,2),(2,2),(0.,14.999999999998),(-10.,
    0.),.PIECEWISE_BEZIER_KNOTS.);
#318 = CARTESIAN_POINT('',(-15.66151970231,-27.12657596394,
    20.882042502418));
#319 = CARTESIAN_POINT('',(-15.66151970231,-27.12657596394,
    10.441021251209));
#320 = CARTESIAN_POINT('',(-23.49227955347,-40.68986394591,
    20.882042502418));
#321 = CARTESIAN_POINT('',(-23.49227955347,-40.68986394591,
    10.441021251209));
#322 = ADVANCED_FACE('',(#323),#334,.F.);
#323 = FACE_BOUND('',#324,.F.);
#324 = EDGE_LOOP('',(#325,#326,#327,#333));
#325 = ORIENTED_EDGE('',*,*,#122,.T.);
#326 = ORIENTED_EDGE('',*,*,#304,.T.);
#327 = ORIENTED_EDGE('',*,*,#328,.F.);
#328 = EDGE_CURVE('',#252,#305,#329,.T.);
#329 = ( BOUNDED_CURVE() B_SPLINE_CURVE(2,(#330,#331,#332),
.UNSPECIFIED.,.F.,.F.) B_SPLINE_CURVE_WITH_KNOTS((3,3),(3.14159265359,
4.18879065359),.PIECEWISE_BEZIER_KNOTS.) CURVE() 
GEOMETRIC_REPRESENTATION_ITEM() RATIONAL_B_SPLINE_CURVE((1.,
0.866025291584,1.)) REPRESENTATION_ITEM('') );
#330 = CARTESIAN_POINT('',(-31.32306375362,3.835968976537E-15,
    20.882042502418));
#331 = CARTESIAN_POINT('',(-31.32306375362,-18.08438866193,
    20.882042502418));
#332 = CARTESIAN_POINT('',(-15.66151970231,-27.12657596394,
    20.882042502418));
#333 = ORIENTED_EDGE('',*,*,#251,.F.);
#334 = ( BOUNDED_SURFACE() B_SPLINE_SURFACE(2,1,(
    (#335,#336)
    ,(#337,#338)
,(#339,#340
    )),.UNSPECIFIED.,.F.,.F.,.F.) B_SPLINE_SURFACE_WITH_KNOTS((3,3),(2,2
    ),(2.09439465359,3.14159265359),(-10.,0.),.PIECEWISE_BEZIER_KNOTS.) 
GEOMETRIC_REPRESENTATION_ITEM() RATIONAL_B_SPLINE_SURFACE((
    (1.,1.)
    ,(0.866025291584,0.866025291584)
,(1.,1.))) REPRESENTATION_ITEM('') SURFACE() );
#335 = CARTESIAN_POINT('',(-15.66151970231,-27.12657596394,
    20.882042502418));
#336 = CARTESIAN_POINT('',(-15.66151970231,-27.12657596394,
    10.441021251209));
#337 = CARTESIAN_POINT('',(-31.32306375362,-18.08438866193,
    20.882042502418));
#338 = CARTESIAN_POINT('',(-31.32306375362,-18.08438866193,
    10.441021251209));
#339 = CARTESIAN_POINT('',(-31.32306375362,-3.835968976537E-15,
    20.882042502418));
#340 = CARTESIAN_POINT('',(-31.32306375362,-3.835968976537E-15,
    10.441021251209));
#341 = ADVANCED_FACE('',(#342),#348,.T.);
#342 = FACE_BOUND('',#343,.F.);
#343 = EDGE_LOOP('',(#344,#345,#346,#347));
#344 = ORIENTED_EDGE('',*,*,#328,.T.);
#345 = ORIENTED_EDGE('',*,*,#311,.T.);
#346 = ORIENTED_EDGE('',*,*,#287,.F.);
#347 = ORIENTED_EDGE('',*,*,#258,.F.);
#348 = B_SPLINE_SURFACE_WITH_KNOTS('',1,1,(
    (#349,#350)
    ,(#351,#352
    )),.UNSPECIFIED.,.F.,.F.,.F.,(2,2),(2,2),(-14.1294806124,
    15.87053104786),(-21.14804135339,17.82311191498),
  .PIECEWISE_BEZIER_KNOTS.);
#349 = CARTESIAN_POINT('',(-46.98459563044,-40.68986394592,
    20.882042502418));
#350 = CARTESIAN_POINT('',(-46.98459563044,7.418791803963E-15,
    20.882042502418));
#351 = CARTESIAN_POINT('',(-15.66151970231,-40.68986394592,
    20.882042502418));
#352 = CARTESIAN_POINT('',(-15.66151970231,7.418791803963E-15,
    20.882042502418));
#353 = ( GEOMETRIC_REPRESENTATION_CONTEXT(3) 
GLOBAL_UNCERTAINTY_ASSIGNED_CONTEXT((#357)) GLOBAL_UNIT_ASSIGNED_CONTEXT
((#354,#355,#356)) REPRESENTATION_CONTEXT('Context #1',
  '3D Context with UNIT and UNCERTAINTY') );
#354 = ( LENGTH_UNIT() NAMED_UNIT(*) SI_UNIT(.MILLI.,.METRE.) );
#355 = ( NAMED_UNIT(*) PLANE_ANGLE_UNIT() SI_UNIT($,.RADIAN.) );
#356 = ( NAMED_UNIT(*) SI_UNIT($,.STERADIAN.) SOLID_ANGLE_UNIT() );
#357 = UNCERTAINTY_MEASURE_WITH_UNIT(LENGTH_MEASURE(1.E-07),#354,
  'distance_accuracy_value','confusion accuracy');
#358 = PRODUCT_RELATED_PRODUCT_CATEGORY('part',$,(#7));
ENDSEC;
END-ISO-10303-21;
