ISO-10303-21;
HEADER;
FILE_DESCRIPTION(('FreeCAD Model'),'2;1');
FILE_NAME('Open CASCADE Shape Model','2025-05-03T16:51:07',('FreeCAD'),(
    'FreeCAD'),'Open CASCADE STEP processor 7.6','FreeCAD','Unknown');
FILE_SCHEMA(('AUTOMOTIVE_DESIGN { 1 0 10303 214 1 1 1 1 }'));
ENDSEC;
DATA;
#1 = APPLICATION_PROTOCOL_DEFINITION('international standard',
  'automotive_design',2000,#2);
#2 = APPLICATION_CONTEXT(
  'core data for automotive mechanical design processes');
#3 = SHAPE_DEFINITION_REPRESENTATION(#4,#10);
#4 = PRODUCT_DEFINITION_SHAPE('','',#5);
#5 = PRODUCT_DEFINITION('design','',#6,#9);
#6 = PRODUCT_DEFINITION_FORMATION('','',#7);
#7 = PRODUCT('Open CASCADE STEP translator 7.6 1',
  'Open CASCADE STEP translator 7.6 1','',(#8));
#8 = PRODUCT_CONTEXT('',#2,'mechanical');
#9 = PRODUCT_DEFINITION_CONTEXT('part definition',#2,'design');
#10 = SHAPE_REPRESENTATION('',(#11,#15,#68),#250);
#11 = AXIS2_PLACEMENT_3D('',#12,#13,#14);
#12 = CARTESIAN_POINT('',(0.,0.,0.));
#13 = DIRECTION('',(0.,0.,1.));
#14 = DIRECTION('',(1.,0.,-0.));
#15 = MANIFOLD_SOLID_BREP('',#16);
#16 = CLOSED_SHELL('',(#17));
#17 = ADVANCED_FACE('',(#18),#22,.T.);
#18 = FACE_BOUND('',#19,.T.);
#19 = VERTEX_LOOP('',#20);
#20 = VERTEX_POINT('',#21);
#21 = CARTESIAN_POINT('',(-1.812463312068E-12,-135.3321514927,
    2.271121414458E-12));
#22 = ( BOUNDED_SURFACE() B_SPLINE_SURFACE(2,2,(
    (#23,#24,#25,#26,#27,#28,#29,#30,#31)
    ,(#32,#33,#34,#35,#36,#37,#38,#39,#40)
    ,(#41,#42,#43,#44,#45,#46,#47,#48,#49)
    ,(#50,#51,#52,#53,#54,#55,#56,#57,#58)
    ,(#59,#60,#61,#62,#63,#64,#65,#66,#67
)),.UNSPECIFIED.,.F.,.T.,.F.) B_SPLINE_SURFACE_WITH_KNOTS((3,2,3),(1,2,2
    ,2,2,2,1),(3.14159265359,4.712388980385,6.28318530718),(
    -1.570796326795,0.,1.570796326795,3.14159265359,4.712388980385,
    6.28318530718,7.853981633974),.UNSPECIFIED.) 
GEOMETRIC_REPRESENTATION_ITEM() RATIONAL_B_SPLINE_SURFACE((
    (1.,0.707106781187,1.,0.707106781187,1.,0.707106781187,1.
      ,0.707106781187,1.)
    ,(0.707106781187,0.5,0.707106781187,0.5,0.707106781187,0.5
      ,0.707106781187,0.5,0.707106781187)
    ,(1.,0.707106781187,1.,0.707106781187,1.,0.707106781187,1.
      ,0.707106781187,1.)
    ,(0.707106781187,0.5,0.707106781187,0.5,0.707106781187,0.5
      ,0.707106781187,0.5,0.707106781187)
    ,(1.,0.707106781187,1.,0.707106781187,1.,0.707106781187,1.
,0.707106781187,1.))) REPRESENTATION_ITEM('') SURFACE() );
#23 = CARTESIAN_POINT('',(4.084733280534E-15,135.33215149273,
    3.454186640131E-13));
#24 = CARTESIAN_POINT('',(4.084733280534E-15,135.33215149273,
    3.454186640131E-13));
#25 = CARTESIAN_POINT('',(4.084733280534E-15,135.33215149273,
    3.454186640131E-13));
#26 = CARTESIAN_POINT('',(4.084733280534E-15,135.33215149273,
    3.454186640131E-13));
#27 = CARTESIAN_POINT('',(4.084733280534E-15,135.33215149273,
    3.454186640131E-13));
#28 = CARTESIAN_POINT('',(4.084733280534E-15,135.33215149273,
    3.454186640131E-13));
#29 = CARTESIAN_POINT('',(4.084733280534E-15,135.33215149273,
    3.454186640131E-13));
#30 = CARTESIAN_POINT('',(4.084733280534E-15,135.33215149273,
    3.454186640131E-13));
#31 = CARTESIAN_POINT('',(4.084733280534E-15,135.33215149273,
    3.454186640131E-13));
#32 = CARTESIAN_POINT('',(-95.69428203307,135.33215149273,
    2.271121414458E-12));
#33 = CARTESIAN_POINT('',(-95.69428203307,135.33215149273,
    95.694282033077));
#34 = CARTESIAN_POINT('',(2.169198197573E-12,135.33215149273,
    95.694282033075));
#35 = CARTESIAN_POINT('',(95.694282033077,135.33215149273,
    95.694282033073));
#36 = CARTESIAN_POINT('',(95.694282033075,135.33215149273,
    -2.061709774043E-12));
#37 = CARTESIAN_POINT('',(95.694282033073,135.33215149273,
    -95.69428203307));
#38 = CARTESIAN_POINT('',(-2.163632990928E-12,135.33215149273,
    -95.69428203307));
#39 = CARTESIAN_POINT('',(-95.69428203307,135.33215149273,
    -95.69428203307));
#40 = CARTESIAN_POINT('',(-95.69428203307,135.33215149273,
    2.271121414458E-12));
#41 = CARTESIAN_POINT('',(-95.69428203307,-6.300141117205E-13,
    2.271121414458E-12));
#42 = CARTESIAN_POINT('',(-95.69428203307,9.018730458424E-13,
    95.694282033077));
#43 = CARTESIAN_POINT('',(-8.931211847538E-13,2.671966322511E-13,
    95.694282033077));
#44 = CARTESIAN_POINT('',(95.694282033074,-3.674797813401E-13,
    95.694282033077));
#45 = CARTESIAN_POINT('',(95.694282033074,-1.899366938903E-12,
    2.271121414458E-12));
#46 = CARTESIAN_POINT('',(95.694282033074,-3.431254096466E-12,
    -95.69428203307));
#47 = CARTESIAN_POINT('',(-8.931211847539E-13,-2.796577682875E-12,
    -95.69428203307));
#48 = CARTESIAN_POINT('',(-95.69428203307,-2.161901269283E-12,
    -95.69428203307));
#49 = CARTESIAN_POINT('',(-95.69428203307,-6.300141117205E-13,
    2.271121414458E-12));
#50 = CARTESIAN_POINT('',(-95.69428203307,-135.3321514927,
    2.271121414458E-12));
#51 = CARTESIAN_POINT('',(-95.69428203307,-135.3321514927,
    95.694282033077));
#52 = CARTESIAN_POINT('',(-3.955440567081E-12,-135.3321514927,
    95.694282033079));
#53 = CARTESIAN_POINT('',(95.694282033071,-135.3321514927,
    95.694282033081));
#54 = CARTESIAN_POINT('',(95.694282033073,-135.3321514927,
    6.603952602959E-12));
#55 = CARTESIAN_POINT('',(95.694282033075,-135.3321514927,
    -95.69428203306));
#56 = CARTESIAN_POINT('',(3.7739062142E-13,-135.3321514927,
    -95.69428203307));
#57 = CARTESIAN_POINT('',(-95.69428203307,-135.3321514927,
    -95.69428203307));
#58 = CARTESIAN_POINT('',(-95.69428203307,-135.3321514927,
    2.271121414458E-12));
#59 = CARTESIAN_POINT('',(-1.791629232746E-12,-135.3321514927,
    4.196824164903E-12));
#60 = CARTESIAN_POINT('',(-1.791629232746E-12,-135.3321514927,
    4.196824164903E-12));
#61 = CARTESIAN_POINT('',(-1.791629232746E-12,-135.3321514927,
    4.196824164903E-12));
#62 = CARTESIAN_POINT('',(-1.791629232746E-12,-135.3321514927,
    4.196824164903E-12));
#63 = CARTESIAN_POINT('',(-1.791629232746E-12,-135.3321514927,
    4.196824164903E-12));
#64 = CARTESIAN_POINT('',(-1.791629232746E-12,-135.3321514927,
    4.196824164903E-12));
#65 = CARTESIAN_POINT('',(-1.791629232746E-12,-135.3321514927,
    4.196824164903E-12));
#66 = CARTESIAN_POINT('',(-1.791629232746E-12,-135.3321514927,
    4.196824164903E-12));
#67 = CARTESIAN_POINT('',(-1.791629232746E-12,-135.3321514927,
    4.196824164903E-12));
#68 = MANIFOLD_SOLID_BREP('',#69);
#69 = CLOSED_SHELL('',(#70,#106,#134,#162,#184,#206,#222,#238));
#70 = ADVANCED_FACE('',(#71),#101,.T.);
#71 = FACE_BOUND('',#72,.T.);
#72 = EDGE_LOOP('',(#73,#82,#89,#96));
#73 = ORIENTED_EDGE('',*,*,#74,.F.);
#74 = EDGE_CURVE('',#75,#77,#79,.T.);
#75 = VERTEX_POINT('',#76);
#76 = CARTESIAN_POINT('',(1.429585445961E-12,23.219326345887,
    -94.27527276994));
#77 = VERTEX_POINT('',#78);
#78 = CARTESIAN_POINT('',(66.662684673838,-23.21932634589,
    -66.66268467383));
#79 = B_SPLINE_CURVE_WITH_KNOTS('',1,(#80,#81),.UNSPECIFIED.,.F.,.F.,(2,
    2),(0.,64.359425290558),.PIECEWISE_BEZIER_KNOTS.);
#80 = CARTESIAN_POINT('',(1.429585445961E-12,23.219326345887,
    -94.27527276994));
#81 = CARTESIAN_POINT('',(66.662684673838,-23.21932634589,
    -66.66268467383));
#82 = ORIENTED_EDGE('',*,*,#83,.T.);
#83 = EDGE_CURVE('',#75,#84,#86,.T.);
#84 = VERTEX_POINT('',#85);
#85 = CARTESIAN_POINT('',(2.782603322885E-15,135.33215149273,
    1.047058202075E-13));
#86 = B_SPLINE_CURVE_WITH_KNOTS('',1,(#87,#88),.UNSPECIFIED.,.F.,.F.,(2,
    2),(-2.011174650174E-12,109.86841134678),.PIECEWISE_BEZIER_KNOTS.);
#87 = CARTESIAN_POINT('',(-8.614851695901E-14,23.21932634589,
    -94.27527276994));
#88 = CARTESIAN_POINT('',(-7.306436296842E-14,135.33215149273,
    2.084134199016E-13));
#89 = ORIENTED_EDGE('',*,*,#90,.F.);
#90 = EDGE_CURVE('',#91,#84,#93,.T.);
#91 = VERTEX_POINT('',#92);
#92 = CARTESIAN_POINT('',(94.275272769945,23.219326345888,
    1.138266891987E-12));
#93 = B_SPLINE_CURVE_WITH_KNOTS('',1,(#94,#95),.UNSPECIFIED.,.F.,.F.,(2,
    2),(-2.063819161187E-12,109.86841134678),.PIECEWISE_BEZIER_KNOTS.);
#94 = CARTESIAN_POINT('',(94.275272769946,23.21932634589,
    1.340931415519E-13));
#95 = CARTESIAN_POINT('',(0.,135.33215149273,1.069420988265E-13));
#96 = ORIENTED_EDGE('',*,*,#97,.T.);
#97 = EDGE_CURVE('',#91,#77,#98,.T.);
#98 = B_SPLINE_CURVE_WITH_KNOTS('',1,(#99,#100),.UNSPECIFIED.,.F.,.F.,(2
    ,2),(-0.,64.359425290558),.PIECEWISE_BEZIER_KNOTS.);
#99 = CARTESIAN_POINT('',(94.275272769945,23.219326345888,
    1.138266891987E-12));
#100 = CARTESIAN_POINT('',(66.662684673838,-23.21932634589,
    -66.66268467383));
#101 = B_SPLINE_SURFACE_WITH_KNOTS('',1,1,(
    (#102,#103)
    ,(#104,#105
    )),.UNSPECIFIED.,.F.,.F.,.F.,(2,2),(2,2),(-21.96610096549,
    78.03389903451),(-83.50514900543,54.849957961142),
  .PIECEWISE_BEZIER_KNOTS.);
#102 = CARTESIAN_POINT('',(113.80032105881,-23.21932634589,
    -19.52504828886));
#103 = CARTESIAN_POINT('',(47.137636384973,135.33215149273,
    47.137636384973));
#104 = CARTESIAN_POINT('',(19.525048288866,-23.21932634589,
    -113.8003210588));
#105 = CARTESIAN_POINT('',(-47.13763638497,135.33215149273,
    -47.13763638497));
#106 = ADVANCED_FACE('',(#107),#129,.T.);
#107 = FACE_BOUND('',#108,.T.);
#108 = EDGE_LOOP('',(#109,#116,#123,#128));
#109 = ORIENTED_EDGE('',*,*,#110,.T.);
#110 = EDGE_CURVE('',#75,#111,#113,.T.);
#111 = VERTEX_POINT('',#112);
#112 = CARTESIAN_POINT('',(-66.66268467383,-23.21932634589,
    -66.66268467383));
#113 = B_SPLINE_CURVE_WITH_KNOTS('',1,(#114,#115),.UNSPECIFIED.,.F.,.F.,
  (2,2),(-5.575872884918E-14,64.359425290558),.PIECEWISE_BEZIER_KNOTS.);
#114 = CARTESIAN_POINT('',(1.487339637244E-12,23.219326345887,
    -94.27527276994));
#115 = CARTESIAN_POINT('',(-66.66268467383,-23.21932634589,
    -66.66268467383));
#116 = ORIENTED_EDGE('',*,*,#117,.F.);
#117 = EDGE_CURVE('',#118,#111,#120,.T.);
#118 = VERTEX_POINT('',#119);
#119 = CARTESIAN_POINT('',(-94.27527276994,23.219326345891,
    6.77797806742E-14));
#120 = B_SPLINE_CURVE_WITH_KNOTS('',1,(#121,#122),.UNSPECIFIED.,.F.,.F.,
  (2,2),(1.240420082186E-27,64.359425290558),.PIECEWISE_BEZIER_KNOTS.);
#121 = CARTESIAN_POINT('',(-94.27527276994,23.219326345891,
    6.77797806742E-14));
#122 = CARTESIAN_POINT('',(-66.66268467383,-23.21932634589,
    -66.66268467383));
#123 = ORIENTED_EDGE('',*,*,#124,.T.);
#124 = EDGE_CURVE('',#118,#84,#125,.T.);
#125 = B_SPLINE_CURVE_WITH_KNOTS('',1,(#126,#127),.UNSPECIFIED.,.F.,.F.,
  (2,2),(3.356792247323E-13,109.86841134678),.PIECEWISE_BEZIER_KNOTS.);
#126 = CARTESIAN_POINT('',(-94.27527276994,23.219326345892,
    1.530398160885E-13));
#127 = CARTESIAN_POINT('',(-1.89466745365E-14,135.33215149273,
    1.002434378036E-13));
#128 = ORIENTED_EDGE('',*,*,#83,.F.);
#129 = B_SPLINE_SURFACE_WITH_KNOTS('',1,1,(
    (#130,#131)
    ,(#132,#133
    )),.UNSPECIFIED.,.F.,.F.,.F.,(2,2),(2,2),(-78.0338990345,
    21.966100965492),(-83.50514900543,54.849957961141),
  .PIECEWISE_BEZIER_KNOTS.);
#130 = CARTESIAN_POINT('',(-19.52504828886,-23.21932634589,
    -113.8003210588));
#131 = CARTESIAN_POINT('',(47.137636384973,135.33215149273,
    -47.13763638497));
#132 = CARTESIAN_POINT('',(-113.8003210588,-23.21932634589,
    -19.52504828886));
#133 = CARTESIAN_POINT('',(-47.13763638497,135.33215149273,
    47.137636384972));
#134 = ADVANCED_FACE('',(#135),#157,.T.);
#135 = FACE_BOUND('',#136,.T.);
#136 = EDGE_LOOP('',(#137,#146,#151,#152));
#137 = ORIENTED_EDGE('',*,*,#138,.F.);
#138 = EDGE_CURVE('',#139,#141,#143,.T.);
#139 = VERTEX_POINT('',#140);
#140 = CARTESIAN_POINT('',(1.127915656742E-13,23.219326345892,
    94.275272769944));
#141 = VERTEX_POINT('',#142);
#142 = CARTESIAN_POINT('',(-66.66268467383,-23.21932634589,
    66.662684673839));
#143 = B_SPLINE_CURVE_WITH_KNOTS('',1,(#144,#145),.UNSPECIFIED.,.F.,.F.,
  (2,2),(-0.,64.359425290558),.PIECEWISE_BEZIER_KNOTS.);
#144 = CARTESIAN_POINT('',(1.127915656742E-13,23.219326345892,
    94.275272769944));
#145 = CARTESIAN_POINT('',(-66.66268467383,-23.21932634589,
    66.662684673839));
#146 = ORIENTED_EDGE('',*,*,#147,.T.);
#147 = EDGE_CURVE('',#139,#84,#148,.T.);
#148 = B_SPLINE_CURVE_WITH_KNOTS('',1,(#149,#150),.UNSPECIFIED.,.F.,.F.,
  (2,2),(7.88547505592E-14,109.86841134678),.PIECEWISE_BEZIER_KNOTS.);
#149 = CARTESIAN_POINT('',(1.41211577479E-13,23.219326345892,
    94.275272769944));
#150 = CARTESIAN_POINT('',(8.770350157994E-14,135.33215149273,
    1.51573396292E-13));
#151 = ORIENTED_EDGE('',*,*,#124,.F.);
#152 = ORIENTED_EDGE('',*,*,#153,.T.);
#153 = EDGE_CURVE('',#118,#141,#154,.T.);
#154 = B_SPLINE_CURVE_WITH_KNOTS('',1,(#155,#156),.UNSPECIFIED.,.F.,.F.,
  (2,2),(0.,64.359425290558),.PIECEWISE_BEZIER_KNOTS.);
#155 = CARTESIAN_POINT('',(-94.27527276994,23.219326345891,
    6.77797806742E-14));
#156 = CARTESIAN_POINT('',(-66.66268467383,-23.21932634589,
    66.662684673839));
#157 = B_SPLINE_SURFACE_WITH_KNOTS('',1,1,(
    (#158,#159)
    ,(#160,#161
    )),.UNSPECIFIED.,.F.,.F.,.F.,(2,2),(2,2),(-21.96610096549,
    78.033899034508),(-83.50514900542,54.849957961141),
  .PIECEWISE_BEZIER_KNOTS.);
#158 = CARTESIAN_POINT('',(-113.8003210588,-23.21932634589,
    19.525048288866));
#159 = CARTESIAN_POINT('',(-47.13763638497,135.33215149273,
    -47.13763638497));
#160 = CARTESIAN_POINT('',(-19.52504828886,-23.21932634589,
    113.80032105881));
#161 = CARTESIAN_POINT('',(47.137636384972,135.33215149273,
    47.137636384972));
#162 = ADVANCED_FACE('',(#163),#179,.T.);
#163 = FACE_BOUND('',#164,.T.);
#164 = EDGE_LOOP('',(#165,#172,#177,#178));
#165 = ORIENTED_EDGE('',*,*,#166,.T.);
#166 = EDGE_CURVE('',#139,#167,#169,.T.);
#167 = VERTEX_POINT('',#168);
#168 = CARTESIAN_POINT('',(66.662684673839,-23.21932634589,
    66.662684673841));
#169 = B_SPLINE_CURVE_WITH_KNOTS('',1,(#170,#171),.UNSPECIFIED.,.F.,.F.,
  (2,2),(9.315407731832E-28,64.359425290558),.PIECEWISE_BEZIER_KNOTS.);
#170 = CARTESIAN_POINT('',(1.127915656742E-13,23.219326345892,
    94.275272769944));
#171 = CARTESIAN_POINT('',(66.662684673838,-23.21932634589,
    66.66268467384));
#172 = ORIENTED_EDGE('',*,*,#173,.F.);
#173 = EDGE_CURVE('',#91,#167,#174,.T.);
#174 = B_SPLINE_CURVE_WITH_KNOTS('',1,(#175,#176),.UNSPECIFIED.,.F.,.F.,
  (2,2),(-5.575872884918E-14,64.359425290558),.PIECEWISE_BEZIER_KNOTS.);
#175 = CARTESIAN_POINT('',(94.275272769945,23.219326345888,
    1.080512700704E-12));
#176 = CARTESIAN_POINT('',(66.662684673837,-23.21932634589,
    66.66268467384));
#177 = ORIENTED_EDGE('',*,*,#90,.T.);
#178 = ORIENTED_EDGE('',*,*,#147,.F.);
#179 = B_SPLINE_SURFACE_WITH_KNOTS('',1,1,(
    (#180,#181)
    ,(#182,#183
    )),.UNSPECIFIED.,.F.,.F.,.F.,(2,2),(2,2),(-78.0338990345,
    21.966100965493),(-83.50514900543,54.849957961141),
  .PIECEWISE_BEZIER_KNOTS.);
#180 = CARTESIAN_POINT('',(19.525048288867,-23.21932634589,
    113.80032105881));
#181 = CARTESIAN_POINT('',(-47.13763638497,135.33215149273,
    47.137636384972));
#182 = CARTESIAN_POINT('',(113.80032105881,-23.21932634589,
    19.525048288866));
#183 = CARTESIAN_POINT('',(47.137636384973,135.33215149273,
    -47.13763638497));
#184 = ADVANCED_FACE('',(#185),#201,.T.);
#185 = FACE_BOUND('',#186,.T.);
#186 = EDGE_LOOP('',(#187,#188,#189,#196));
#187 = ORIENTED_EDGE('',*,*,#110,.F.);
#188 = ORIENTED_EDGE('',*,*,#74,.T.);
#189 = ORIENTED_EDGE('',*,*,#190,.T.);
#190 = EDGE_CURVE('',#77,#191,#193,.T.);
#191 = VERTEX_POINT('',#192);
#192 = CARTESIAN_POINT('',(-1.789024972831E-12,-135.3321514927,
    4.437537008709E-12));
#193 = B_SPLINE_CURVE_WITH_KNOTS('',1,(#194,#195),.UNSPECIFIED.,.F.,.F.,
  (2,2),(1.07532047636E-12,109.86841134678),.PIECEWISE_BEZIER_KNOTS.);
#194 = CARTESIAN_POINT('',(66.662684673839,-23.21932634589,
    -66.66268467383));
#195 = CARTESIAN_POINT('',(-1.780987406431E-12,-135.3321514927,
    4.44299517881E-12));
#196 = ORIENTED_EDGE('',*,*,#197,.F.);
#197 = EDGE_CURVE('',#111,#191,#198,.T.);
#198 = B_SPLINE_CURVE_WITH_KNOTS('',1,(#199,#200),.UNSPECIFIED.,.F.,.F.,
  (2,2),(0.,109.86841134678),.PIECEWISE_BEZIER_KNOTS.);
#199 = CARTESIAN_POINT('',(-66.66268467383,-23.21932634589,
    -66.66268467383));
#200 = CARTESIAN_POINT('',(-1.847300767309E-12,-135.3321514927,
    4.49983520242E-12));
#201 = B_SPLINE_SURFACE_WITH_KNOTS('',1,1,(
    (#202,#203)
    ,(#204,#205
    )),.UNSPECIFIED.,.F.,.F.,.F.,(2,2),(2,2),(-21.96610096549,
    78.033899034508),(-54.84995796114,83.505149005429),
  .PIECEWISE_BEZIER_KNOTS.);
#202 = CARTESIAN_POINT('',(66.662684673839,-135.3321514927,
    4.083008362617E-12));
#203 = CARTESIAN_POINT('',(66.662684673839,23.219326345888,
    -94.27527276994));
#204 = CARTESIAN_POINT('',(-66.66268467383,-135.3321514927,
    4.807718663638E-12));
#205 = CARTESIAN_POINT('',(-66.66268467383,23.219326345888,
    -94.27527276994));
#206 = ADVANCED_FACE('',(#207),#217,.T.);
#207 = FACE_BOUND('',#208,.T.);
#208 = EDGE_LOOP('',(#209,#210,#211,#216));
#209 = ORIENTED_EDGE('',*,*,#117,.T.);
#210 = ORIENTED_EDGE('',*,*,#197,.T.);
#211 = ORIENTED_EDGE('',*,*,#212,.F.);
#212 = EDGE_CURVE('',#141,#191,#213,.T.);
#213 = B_SPLINE_CURVE_WITH_KNOTS('',1,(#214,#215),.UNSPECIFIED.,.F.,.F.,
  (2,2),(9.991848551303E-13,109.86841134678),.PIECEWISE_BEZIER_KNOTS.);
#214 = CARTESIAN_POINT('',(-66.66268467383,-23.21932634589,
    66.66268467384));
#215 = CARTESIAN_POINT('',(-1.780987406431E-12,-135.3321514927,
    4.471415190615E-12));
#216 = ORIENTED_EDGE('',*,*,#153,.F.);
#217 = B_SPLINE_SURFACE_WITH_KNOTS('',1,1,(
    (#218,#219)
    ,(#220,#221
    )),.UNSPECIFIED.,.F.,.F.,.F.,(2,2),(2,2),(-78.03389903451,
    21.96610096549),(-54.84995796114,83.505149005428),
  .PIECEWISE_BEZIER_KNOTS.);
#218 = CARTESIAN_POINT('',(-2.264127607112E-12,-135.3321514927,
    -66.66268467383));
#219 = CARTESIAN_POINT('',(-94.27527276994,23.219326345891,
    -66.66268467383));
#220 = CARTESIAN_POINT('',(-1.506260625652E-12,-135.3321514927,
    66.66268467384));
#221 = CARTESIAN_POINT('',(-94.27527276994,23.219326345891,
    66.66268467384));
#222 = ADVANCED_FACE('',(#223),#233,.T.);
#223 = FACE_BOUND('',#224,.T.);
#224 = EDGE_LOOP('',(#225,#226,#227,#228));
#225 = ORIENTED_EDGE('',*,*,#166,.F.);
#226 = ORIENTED_EDGE('',*,*,#138,.T.);
#227 = ORIENTED_EDGE('',*,*,#212,.T.);
#228 = ORIENTED_EDGE('',*,*,#229,.F.);
#229 = EDGE_CURVE('',#167,#191,#230,.T.);
#230 = B_SPLINE_CURVE_WITH_KNOTS('',1,(#231,#232),.UNSPECIFIED.,.F.,.F.,
  (2,2),(-0.,109.86841134678),.PIECEWISE_BEZIER_KNOTS.);
#231 = CARTESIAN_POINT('',(66.662684673839,-23.21932634589,
    66.662684673841));
#232 = CARTESIAN_POINT('',(-1.714674045554E-12,-135.3321514927,
    4.329315131591E-12));
#233 = B_SPLINE_SURFACE_WITH_KNOTS('',1,1,(
    (#234,#235)
    ,(#236,#237
    )),.UNSPECIFIED.,.F.,.F.,.F.,(2,2),(2,2),(-21.96610096549,
    78.033899034509),(-54.84995796114,83.505149005428),
  .PIECEWISE_BEZIER_KNOTS.);
#234 = CARTESIAN_POINT('',(-66.66268467383,-135.3321514927,
    3.476714777449E-12));
#235 = CARTESIAN_POINT('',(-66.66268467383,23.219326345892,
    94.275272769943));
#236 = CARTESIAN_POINT('',(66.66268467384,-135.3321514927,
    5.376118899733E-12));
#237 = CARTESIAN_POINT('',(66.662684673838,23.219326345892,
    94.275272769945));
#238 = ADVANCED_FACE('',(#239),#245,.T.);
#239 = FACE_BOUND('',#240,.T.);
#240 = EDGE_LOOP('',(#241,#242,#243,#244));
#241 = ORIENTED_EDGE('',*,*,#173,.T.);
#242 = ORIENTED_EDGE('',*,*,#229,.T.);
#243 = ORIENTED_EDGE('',*,*,#190,.F.);
#244 = ORIENTED_EDGE('',*,*,#97,.F.);
#245 = B_SPLINE_SURFACE_WITH_KNOTS('',1,1,(
    (#246,#247)
    ,(#248,#249
    )),.UNSPECIFIED.,.F.,.F.,.F.,(2,2),(2,2),(-78.0338990345,
    21.966100965493),(-54.84995796114,83.50514900543),
  .PIECEWISE_BEZIER_KNOTS.);
#246 = CARTESIAN_POINT('',(-3.277774694815E-12,-135.3321514927,
    66.66268467384));
#247 = CARTESIAN_POINT('',(94.275272769943,23.219326345888,
    66.662684673842));
#248 = CARTESIAN_POINT('',(-2.036767512674E-13,-135.3321514927,
    -66.66268467383));
#249 = CARTESIAN_POINT('',(94.275272769946,23.219326345888,
    -66.66268467383));
#250 = ( GEOMETRIC_REPRESENTATION_CONTEXT(3) 
GLOBAL_UNCERTAINTY_ASSIGNED_CONTEXT((#254)) GLOBAL_UNIT_ASSIGNED_CONTEXT
((#251,#252,#253)) REPRESENTATION_CONTEXT('Context #1',
  '3D Context with UNIT and UNCERTAINTY') );
#251 = ( LENGTH_UNIT() NAMED_UNIT(*) SI_UNIT(.MILLI.,.METRE.) );
#252 = ( NAMED_UNIT(*) PLANE_ANGLE_UNIT() SI_UNIT($,.RADIAN.) );
#253 = ( NAMED_UNIT(*) SI_UNIT($,.STERADIAN.) SOLID_ANGLE_UNIT() );
#254 = UNCERTAINTY_MEASURE_WITH_UNIT(LENGTH_MEASURE(1.E-07),#251,
  'distance_accuracy_value','confusion accuracy');
#255 = PRODUCT_RELATED_PRODUCT_CATEGORY('part',$,(#7));
ENDSEC;
END-ISO-10303-21;
