ISO-10303-21;
HEADER;
FILE_DESCRIPTION(('FreeCAD Model'),'2;1');
FILE_NAME('Open CASCADE Shape Model','2025-05-03T14:00:30',('FreeCAD'),(
    'FreeCAD'),'Open CASCADE STEP processor 7.6','FreeCAD','Unknown');
FILE_SCHEMA(('AUTOMOTIVE_DESIGN { 1 0 10303 214 1 1 1 1 }'));
ENDSEC;
DATA;
#1 = APPLICATION_PROTOCOL_DEFINITION('international standard',
  'automotive_design',2000,#2);
#2 = APPLICATION_CONTEXT(
  'core data for automotive mechanical design processes');
#3 = SHAPE_DEFINITION_REPRESENTATION(#4,#10);
#4 = PRODUCT_DEFINITION_SHAPE('','',#5);
#5 = PRODUCT_DEFINITION('design','',#6,#9);
#6 = PRODUCT_DEFINITION_FORMATION('','',#7);
#7 = PRODUCT('Open CASCADE STEP translator 7.6 1',
  'Open CASCADE STEP translator 7.6 1','',(#8));
#8 = PRODUCT_CONTEXT('',#2,'mechanical');
#9 = PRODUCT_DEFINITION_CONTEXT('part definition',#2,'design');
#10 = ADVANCED_BREP_SHAPE_REPRESENTATION('',(#11,#15),#435);
#11 = AXIS2_PLACEMENT_3D('',#12,#13,#14);
#12 = CARTESIAN_POINT('',(0.,0.,0.));
#13 = DIRECTION('',(0.,0.,1.));
#14 = DIRECTION('',(1.,0.,-0.));
#15 = MANIFOLD_SOLID_BREP('',#16);
#16 = CLOSED_SHELL('',(#17,#53,#81,#109,#129,#171,#267,#287,#303,#321,
    #333,#361,#384,#406,#423));
#17 = ADVANCED_FACE('',(#18),#48,.T.);
#18 = FACE_BOUND('',#19,.T.);
#19 = EDGE_LOOP('',(#20,#29,#36,#43));
#20 = ORIENTED_EDGE('',*,*,#21,.T.);
#21 = EDGE_CURVE('',#22,#24,#26,.T.);
#22 = VERTEX_POINT('',#23);
#23 = CARTESIAN_POINT('',(0.,-26.1104219739,0.));
#24 = VERTEX_POINT('',#25);
#25 = CARTESIAN_POINT('',(1.044416878956E+03,-26.1104219739,0.));
#26 = B_SPLINE_CURVE_WITH_KNOTS('',1,(#27,#28),.UNSPECIFIED.,.F.,.F.,(2,
    2),(0.,1.2E+03),.PIECEWISE_BEZIER_KNOTS.);
#27 = CARTESIAN_POINT('',(0.,-26.1104219739,0.));
#28 = CARTESIAN_POINT('',(1.044416878956E+03,-26.1104219739,0.));
#29 = ORIENTED_EDGE('',*,*,#30,.T.);
#30 = EDGE_CURVE('',#24,#31,#33,.T.);
#31 = VERTEX_POINT('',#32);
#32 = CARTESIAN_POINT('',(1.044416878956E+03,17.406947982605,0.));
#33 = B_SPLINE_CURVE_WITH_KNOTS('',1,(#34,#35),.UNSPECIFIED.,.F.,.F.,(2,
    2),(0.,50.),.PIECEWISE_BEZIER_KNOTS.);
#34 = CARTESIAN_POINT('',(1.044416878956E+03,-26.1104219739,0.));
#35 = CARTESIAN_POINT('',(1.044416878956E+03,17.406947982605,0.));
#36 = ORIENTED_EDGE('',*,*,#37,.F.);
#37 = EDGE_CURVE('',#38,#31,#40,.T.);
#38 = VERTEX_POINT('',#39);
#39 = CARTESIAN_POINT('',(0.,17.406947982605,0.));
#40 = B_SPLINE_CURVE_WITH_KNOTS('',1,(#41,#42),.UNSPECIFIED.,.F.,.F.,(2,
    2),(0.,1.2E+03),.PIECEWISE_BEZIER_KNOTS.);
#41 = CARTESIAN_POINT('',(0.,17.406947982605,0.));
#42 = CARTESIAN_POINT('',(1.044416878956E+03,17.406947982605,0.));
#43 = ORIENTED_EDGE('',*,*,#44,.F.);
#44 = EDGE_CURVE('',#22,#38,#45,.T.);
#45 = B_SPLINE_CURVE_WITH_KNOTS('',1,(#46,#47),.UNSPECIFIED.,.F.,.F.,(2,
    2),(0.,50.),.PIECEWISE_BEZIER_KNOTS.);
#46 = CARTESIAN_POINT('',(0.,-26.1104219739,0.));
#47 = CARTESIAN_POINT('',(0.,17.406947982605,0.));
#48 = B_SPLINE_SURFACE_WITH_KNOTS('',1,1,(
    (#49,#50)
    ,(#51,#52
    )),.UNSPECIFIED.,.F.,.F.,.F.,(2,2),(2,2),(-600.,600.),(-25.,25.),
  .PIECEWISE_BEZIER_KNOTS.);
#49 = CARTESIAN_POINT('',(0.,-26.1104219739,0.));
#50 = CARTESIAN_POINT('',(0.,17.406947982605,0.));
#51 = CARTESIAN_POINT('',(1.044416878956E+03,-26.1104219739,0.));
#52 = CARTESIAN_POINT('',(1.044416878956E+03,17.406947982605,0.));
#53 = ADVANCED_FACE('',(#54),#76,.T.);
#54 = FACE_BOUND('',#55,.T.);
#55 = EDGE_LOOP('',(#56,#63,#70,#75));
#56 = ORIENTED_EDGE('',*,*,#57,.T.);
#57 = EDGE_CURVE('',#24,#58,#60,.T.);
#58 = VERTEX_POINT('',#59);
#59 = CARTESIAN_POINT('',(1.044416878956E+03,-26.1104219739,
    -870.3473991302));
#60 = B_SPLINE_CURVE_WITH_KNOTS('',1,(#61,#62),.UNSPECIFIED.,.F.,.F.,(2,
    2),(0.,1.E+03),.PIECEWISE_BEZIER_KNOTS.);
#61 = CARTESIAN_POINT('',(1.044416878956E+03,-26.1104219739,0.));
#62 = CARTESIAN_POINT('',(1.044416878956E+03,-26.1104219739,
    -870.3473991302));
#63 = ORIENTED_EDGE('',*,*,#64,.T.);
#64 = EDGE_CURVE('',#58,#65,#67,.T.);
#65 = VERTEX_POINT('',#66);
#66 = CARTESIAN_POINT('',(1.044416878956E+03,17.406947982605,
    -870.3473991302));
#67 = B_SPLINE_CURVE_WITH_KNOTS('',1,(#68,#69),.UNSPECIFIED.,.F.,.F.,(2,
    2),(0.,50.),.PIECEWISE_BEZIER_KNOTS.);
#68 = CARTESIAN_POINT('',(1.044416878956E+03,-26.1104219739,
    -870.3473991302));
#69 = CARTESIAN_POINT('',(1.044416878956E+03,17.406947982605,
    -870.3473991302));
#70 = ORIENTED_EDGE('',*,*,#71,.F.);
#71 = EDGE_CURVE('',#31,#65,#72,.T.);
#72 = B_SPLINE_CURVE_WITH_KNOTS('',1,(#73,#74),.UNSPECIFIED.,.F.,.F.,(2,
    2),(0.,1.E+03),.PIECEWISE_BEZIER_KNOTS.);
#73 = CARTESIAN_POINT('',(1.044416878956E+03,17.406947982605,0.));
#74 = CARTESIAN_POINT('',(1.044416878956E+03,17.406947982605,
    -870.3473991302));
#75 = ORIENTED_EDGE('',*,*,#30,.F.);
#76 = B_SPLINE_SURFACE_WITH_KNOTS('',1,1,(
    (#77,#78)
    ,(#79,#80
    )),.UNSPECIFIED.,.F.,.F.,.F.,(2,2),(2,2),(-500.,500.),(-25.,25.),
  .PIECEWISE_BEZIER_KNOTS.);
#77 = CARTESIAN_POINT('',(1.044416878956E+03,17.406947982605,
    -870.3473991302));
#78 = CARTESIAN_POINT('',(1.044416878956E+03,-26.1104219739,
    -870.3473991302));
#79 = CARTESIAN_POINT('',(1.044416878956E+03,17.406947982605,0.));
#80 = CARTESIAN_POINT('',(1.044416878956E+03,-26.1104219739,0.));
#81 = ADVANCED_FACE('',(#82),#104,.T.);
#82 = FACE_BOUND('',#83,.T.);
#83 = EDGE_LOOP('',(#84,#91,#98,#103));
#84 = ORIENTED_EDGE('',*,*,#85,.T.);
#85 = EDGE_CURVE('',#58,#86,#88,.T.);
#86 = VERTEX_POINT('',#87);
#87 = CARTESIAN_POINT('',(0.,-26.1104219739,-870.3473991302));
#88 = B_SPLINE_CURVE_WITH_KNOTS('',1,(#89,#90),.UNSPECIFIED.,.F.,.F.,(2,
    2),(0.,1.2E+03),.PIECEWISE_BEZIER_KNOTS.);
#89 = CARTESIAN_POINT('',(1.044416878956E+03,-26.1104219739,
    -870.3473991302));
#90 = CARTESIAN_POINT('',(0.,-26.1104219739,-870.3473991302));
#91 = ORIENTED_EDGE('',*,*,#92,.T.);
#92 = EDGE_CURVE('',#86,#93,#95,.T.);
#93 = VERTEX_POINT('',#94);
#94 = CARTESIAN_POINT('',(0.,17.406947982605,-870.3473991302));
#95 = B_SPLINE_CURVE_WITH_KNOTS('',1,(#96,#97),.UNSPECIFIED.,.F.,.F.,(2,
    2),(0.,50.),.PIECEWISE_BEZIER_KNOTS.);
#96 = CARTESIAN_POINT('',(0.,-26.1104219739,-870.3473991302));
#97 = CARTESIAN_POINT('',(0.,17.406947982605,-870.3473991302));
#98 = ORIENTED_EDGE('',*,*,#99,.F.);
#99 = EDGE_CURVE('',#65,#93,#100,.T.);
#100 = B_SPLINE_CURVE_WITH_KNOTS('',1,(#101,#102),.UNSPECIFIED.,.F.,.F.,
  (2,2),(0.,1.2E+03),.PIECEWISE_BEZIER_KNOTS.);
#101 = CARTESIAN_POINT('',(1.044416878956E+03,17.406947982605,
    -870.3473991302));
#102 = CARTESIAN_POINT('',(0.,17.406947982605,-870.3473991302));
#103 = ORIENTED_EDGE('',*,*,#64,.F.);
#104 = B_SPLINE_SURFACE_WITH_KNOTS('',1,1,(
    (#105,#106)
    ,(#107,#108
    )),.UNSPECIFIED.,.F.,.F.,.F.,(2,2),(2,2),(-600.,600.),(-25.,25.),
  .PIECEWISE_BEZIER_KNOTS.);
#105 = CARTESIAN_POINT('',(1.044416878956E+03,-26.1104219739,
    -870.3473991302));
#106 = CARTESIAN_POINT('',(1.044416878956E+03,17.406947982605,
    -870.3473991302));
#107 = CARTESIAN_POINT('',(0.,-26.1104219739,-870.3473991302));
#108 = CARTESIAN_POINT('',(0.,17.406947982605,-870.3473991302));
#109 = ADVANCED_FACE('',(#110),#124,.T.);
#110 = FACE_BOUND('',#111,.T.);
#111 = EDGE_LOOP('',(#112,#117,#118,#123));
#112 = ORIENTED_EDGE('',*,*,#113,.T.);
#113 = EDGE_CURVE('',#86,#22,#114,.T.);
#114 = B_SPLINE_CURVE_WITH_KNOTS('',1,(#115,#116),.UNSPECIFIED.,.F.,.F.,
  (2,2),(0.,1.E+03),.PIECEWISE_BEZIER_KNOTS.);
#115 = CARTESIAN_POINT('',(0.,-26.1104219739,-870.3473991302));
#116 = CARTESIAN_POINT('',(0.,-26.1104219739,0.));
#117 = ORIENTED_EDGE('',*,*,#44,.T.);
#118 = ORIENTED_EDGE('',*,*,#119,.F.);
#119 = EDGE_CURVE('',#93,#38,#120,.T.);
#120 = B_SPLINE_CURVE_WITH_KNOTS('',1,(#121,#122),.UNSPECIFIED.,.F.,.F.,
  (2,2),(0.,1.E+03),.PIECEWISE_BEZIER_KNOTS.);
#121 = CARTESIAN_POINT('',(0.,17.406947982605,-870.3473991302));
#122 = CARTESIAN_POINT('',(0.,17.406947982605,0.));
#123 = ORIENTED_EDGE('',*,*,#92,.F.);
#124 = B_SPLINE_SURFACE_WITH_KNOTS('',1,1,(
    (#125,#126)
    ,(#127,#128
    )),.UNSPECIFIED.,.F.,.F.,.F.,(2,2),(2,2),(-500.,500.),(-25.,25.),
  .PIECEWISE_BEZIER_KNOTS.);
#125 = CARTESIAN_POINT('',(0.,17.406947982605,0.));
#126 = CARTESIAN_POINT('',(0.,-26.1104219739,0.));
#127 = CARTESIAN_POINT('',(0.,17.406947982605,-870.3473991302));
#128 = CARTESIAN_POINT('',(0.,-26.1104219739,-870.3473991302));
#129 = ADVANCED_FACE('',(#130,#136),#166,.F.);
#130 = FACE_BOUND('',#131,.T.);
#131 = EDGE_LOOP('',(#132,#133,#134,#135));
#132 = ORIENTED_EDGE('',*,*,#113,.F.);
#133 = ORIENTED_EDGE('',*,*,#85,.F.);
#134 = ORIENTED_EDGE('',*,*,#57,.F.);
#135 = ORIENTED_EDGE('',*,*,#21,.F.);
#136 = FACE_BOUND('',#137,.F.);
#137 = EDGE_LOOP('',(#138,#147,#154,#161));
#138 = ORIENTED_EDGE('',*,*,#139,.F.);
#139 = EDGE_CURVE('',#140,#142,#144,.T.);
#140 = VERTEX_POINT('',#141);
#141 = CARTESIAN_POINT('',(87.034739913024,-26.1112923213,
    -435.1736995651));
#142 = VERTEX_POINT('',#143);
#143 = CARTESIAN_POINT('',(87.034739913024,-26.1112923213,
    -87.03473991302));
#144 = B_SPLINE_CURVE_WITH_KNOTS('',1,(#145,#146),.UNSPECIFIED.,.F.,.F.,
  (2,2),(0.,400.),.PIECEWISE_BEZIER_KNOTS.);
#145 = CARTESIAN_POINT('',(87.034739913024,-26.1112923213,
    -435.1736995651));
#146 = CARTESIAN_POINT('',(87.034739913024,-26.1112923213,
    -87.03473991302));
#147 = ORIENTED_EDGE('',*,*,#148,.F.);
#148 = EDGE_CURVE('',#149,#140,#151,.T.);
#149 = VERTEX_POINT('',#150);
#150 = CARTESIAN_POINT('',(957.38213904326,-26.1112923213,
    -435.1736995651));
#151 = B_SPLINE_CURVE_WITH_KNOTS('',1,(#152,#153),.UNSPECIFIED.,.F.,.F.,
  (2,2),(0.,1.E+03),.PIECEWISE_BEZIER_KNOTS.);
#152 = CARTESIAN_POINT('',(957.38213904326,-26.1112923213,
    -435.1736995651));
#153 = CARTESIAN_POINT('',(87.034739913024,-26.1112923213,
    -435.1736995651));
#154 = ORIENTED_EDGE('',*,*,#155,.F.);
#155 = EDGE_CURVE('',#156,#149,#158,.T.);
#156 = VERTEX_POINT('',#157);
#157 = CARTESIAN_POINT('',(957.38213904326,-26.1112923213,
    -87.03473991302));
#158 = B_SPLINE_CURVE_WITH_KNOTS('',1,(#159,#160),.UNSPECIFIED.,.F.,.F.,
  (2,2),(0.,400.),.PIECEWISE_BEZIER_KNOTS.);
#159 = CARTESIAN_POINT('',(957.38213904326,-26.1112923213,
    -87.03473991302));
#160 = CARTESIAN_POINT('',(957.38213904326,-26.1112923213,
    -435.1736995651));
#161 = ORIENTED_EDGE('',*,*,#162,.F.);
#162 = EDGE_CURVE('',#142,#156,#163,.T.);
#163 = B_SPLINE_CURVE_WITH_KNOTS('',1,(#164,#165),.UNSPECIFIED.,.F.,.F.,
  (2,2),(0.,1.E+03),.PIECEWISE_BEZIER_KNOTS.);
#164 = CARTESIAN_POINT('',(87.034739913024,-26.1112923213,
    -87.03473991302));
#165 = CARTESIAN_POINT('',(957.38213904326,-26.1112923213,
    -87.03473991302));
#166 = B_SPLINE_SURFACE_WITH_KNOTS('',1,1,(
    (#167,#168)
    ,(#169,#170
    )),.UNSPECIFIED.,.F.,.F.,.F.,(2,2),(2,2),(-1.E+03,0.),(0.,1.2E+03),
  .PIECEWISE_BEZIER_KNOTS.);
#167 = CARTESIAN_POINT('',(0.,-26.1104219739,-870.3473991302));
#168 = CARTESIAN_POINT('',(1.044416878956E+03,-26.1104219739,
    -870.3473991302));
#169 = CARTESIAN_POINT('',(0.,-26.1104219739,0.));
#170 = CARTESIAN_POINT('',(1.044416878956E+03,-26.1104219739,0.));
#171 = ADVANCED_FACE('',(#172,#178,#222),#262,.T.);
#172 = FACE_BOUND('',#173,.T.);
#173 = EDGE_LOOP('',(#174,#175,#176,#177));
#174 = ORIENTED_EDGE('',*,*,#37,.T.);
#175 = ORIENTED_EDGE('',*,*,#71,.T.);
#176 = ORIENTED_EDGE('',*,*,#99,.T.);
#177 = ORIENTED_EDGE('',*,*,#119,.T.);
#178 = FACE_BOUND('',#179,.T.);
#179 = EDGE_LOOP('',(#180,#189,#196,#203,#210,#217));
#180 = ORIENTED_EDGE('',*,*,#181,.F.);
#181 = EDGE_CURVE('',#182,#184,#186,.T.);
#182 = VERTEX_POINT('',#183);
#183 = CARTESIAN_POINT('',(87.034739913024,17.406947982605,
    -435.1736995651));
#184 = VERTEX_POINT('',#185);
#185 = CARTESIAN_POINT('',(87.034739913024,17.406947982605,
    -87.03473991302));
#186 = B_SPLINE_CURVE_WITH_KNOTS('',1,(#187,#188),.UNSPECIFIED.,.F.,.F.,
  (2,2),(0.,400.),.PIECEWISE_BEZIER_KNOTS.);
#187 = CARTESIAN_POINT('',(87.034739913024,17.406947982605,
    -435.1736995651));
#188 = CARTESIAN_POINT('',(87.034739913024,17.406947982605,
    -87.03473991302));
#189 = ORIENTED_EDGE('',*,*,#190,.F.);
#190 = EDGE_CURVE('',#191,#182,#193,.T.);
#191 = VERTEX_POINT('',#192);
#192 = CARTESIAN_POINT('',(456.93238454337,17.406947982605,
    -435.1736995651));
#193 = B_SPLINE_CURVE_WITH_KNOTS('',1,(#194,#195),.UNSPECIFIED.,.F.,.F.,
  (2,2),(575.,1.E+03),.PIECEWISE_BEZIER_KNOTS.);
#194 = CARTESIAN_POINT('',(456.93238454337,17.406947982605,
    -435.1736995651));
#195 = CARTESIAN_POINT('',(87.034739913024,17.406947982605,
    -435.1736995651));
#196 = ORIENTED_EDGE('',*,*,#197,.F.);
#197 = EDGE_CURVE('',#198,#191,#200,.T.);
#198 = VERTEX_POINT('',#199);
#199 = CARTESIAN_POINT('',(587.48449441291,17.406947982605,
    -435.1736995651));
#200 = B_SPLINE_CURVE_WITH_KNOTS('',1,(#201,#202),.UNSPECIFIED.,.F.,.F.,
  (2,2),(425.,575.),.PIECEWISE_BEZIER_KNOTS.);
#201 = CARTESIAN_POINT('',(587.48449441291,17.406947982605,
    -435.1736995651));
#202 = CARTESIAN_POINT('',(456.93238454337,17.406947982605,
    -435.1736995651));
#203 = ORIENTED_EDGE('',*,*,#204,.F.);
#204 = EDGE_CURVE('',#205,#198,#207,.T.);
#205 = VERTEX_POINT('',#206);
#206 = CARTESIAN_POINT('',(957.38213904326,17.406947982605,
    -435.1736995651));
#207 = B_SPLINE_CURVE_WITH_KNOTS('',1,(#208,#209),.UNSPECIFIED.,.F.,.F.,
  (2,2),(0.,425.),.PIECEWISE_BEZIER_KNOTS.);
#208 = CARTESIAN_POINT('',(957.38213904326,17.406947982605,
    -435.1736995651));
#209 = CARTESIAN_POINT('',(587.48449441291,17.406947982605,
    -435.1736995651));
#210 = ORIENTED_EDGE('',*,*,#211,.F.);
#211 = EDGE_CURVE('',#212,#205,#214,.T.);
#212 = VERTEX_POINT('',#213);
#213 = CARTESIAN_POINT('',(957.38213904326,17.406947982605,
    -87.03473991302));
#214 = B_SPLINE_CURVE_WITH_KNOTS('',1,(#215,#216),.UNSPECIFIED.,.F.,.F.,
  (2,2),(0.,400.),.PIECEWISE_BEZIER_KNOTS.);
#215 = CARTESIAN_POINT('',(957.38213904326,17.406947982605,
    -87.03473991302));
#216 = CARTESIAN_POINT('',(957.38213904326,17.406947982605,
    -435.1736995651));
#217 = ORIENTED_EDGE('',*,*,#218,.F.);
#218 = EDGE_CURVE('',#184,#212,#219,.T.);
#219 = B_SPLINE_CURVE_WITH_KNOTS('',1,(#220,#221),.UNSPECIFIED.,.F.,.F.,
  (2,2),(0.,1.E+03),.PIECEWISE_BEZIER_KNOTS.);
#220 = CARTESIAN_POINT('',(87.034739913024,17.406947982605,
    -87.03473991302));
#221 = CARTESIAN_POINT('',(957.38213904326,17.406947982605,
    -87.03473991302));
#222 = FACE_BOUND('',#223,.T.);
#223 = EDGE_LOOP('',(#224,#231,#238,#245,#250,#257));
#224 = ORIENTED_EDGE('',*,*,#225,.F.);
#225 = EDGE_CURVE('',#191,#226,#228,.T.);
#226 = VERTEX_POINT('',#227);
#227 = CARTESIAN_POINT('',(456.93238454337,17.406947982605,
    -422.1184885781));
#228 = B_SPLINE_CURVE_WITH_KNOTS('',1,(#229,#230),.UNSPECIFIED.,.F.,.F.,
  (2,2),(15.,30.),.PIECEWISE_BEZIER_KNOTS.);
#229 = CARTESIAN_POINT('',(456.93238454337,17.406947982605,
    -435.1736995651));
#230 = CARTESIAN_POINT('',(456.93238454337,17.406947982605,
    -422.1184885781));
#231 = ORIENTED_EDGE('',*,*,#232,.F.);
#232 = EDGE_CURVE('',#233,#191,#235,.T.);
#233 = VERTEX_POINT('',#234);
#234 = CARTESIAN_POINT('',(456.93238454337,17.406947982605,
    -448.228910552));
#235 = B_SPLINE_CURVE_WITH_KNOTS('',1,(#236,#237),.UNSPECIFIED.,.F.,.F.,
  (2,2),(0.,15.),.PIECEWISE_BEZIER_KNOTS.);
#236 = CARTESIAN_POINT('',(456.93238454337,17.406947982605,
    -448.228910552));
#237 = CARTESIAN_POINT('',(456.93238454337,17.406947982605,
    -435.1736995651));
#238 = ORIENTED_EDGE('',*,*,#239,.F.);
#239 = EDGE_CURVE('',#240,#233,#242,.T.);
#240 = VERTEX_POINT('',#241);
#241 = CARTESIAN_POINT('',(587.48449441291,17.406947982605,
    -448.228910552));
#242 = B_SPLINE_CURVE_WITH_KNOTS('',1,(#243,#244),.UNSPECIFIED.,.F.,.F.,
  (2,2),(0.,150.),.PIECEWISE_BEZIER_KNOTS.);
#243 = CARTESIAN_POINT('',(587.48449441291,17.406947982605,
    -448.228910552));
#244 = CARTESIAN_POINT('',(456.93238454337,17.406947982605,
    -448.228910552));
#245 = ORIENTED_EDGE('',*,*,#246,.F.);
#246 = EDGE_CURVE('',#198,#240,#247,.T.);
#247 = B_SPLINE_CURVE_WITH_KNOTS('',1,(#248,#249),.UNSPECIFIED.,.F.,.F.,
  (2,2),(15.,30.),.PIECEWISE_BEZIER_KNOTS.);
#248 = CARTESIAN_POINT('',(587.48449441291,17.406947982605,
    -435.1736995651));
#249 = CARTESIAN_POINT('',(587.48449441291,17.406947982605,
    -448.228910552));
#250 = ORIENTED_EDGE('',*,*,#251,.F.);
#251 = EDGE_CURVE('',#252,#198,#254,.T.);
#252 = VERTEX_POINT('',#253);
#253 = CARTESIAN_POINT('',(587.48449441291,17.406947982605,
    -422.1184885781));
#254 = B_SPLINE_CURVE_WITH_KNOTS('',1,(#255,#256),.UNSPECIFIED.,.F.,.F.,
  (2,2),(0.,15.),.PIECEWISE_BEZIER_KNOTS.);
#255 = CARTESIAN_POINT('',(587.48449441291,17.406947982605,
    -422.1184885781));
#256 = CARTESIAN_POINT('',(587.48449441291,17.406947982605,
    -435.1736995651));
#257 = ORIENTED_EDGE('',*,*,#258,.F.);
#258 = EDGE_CURVE('',#226,#252,#259,.T.);
#259 = B_SPLINE_CURVE_WITH_KNOTS('',1,(#260,#261),.UNSPECIFIED.,.F.,.F.,
  (2,2),(0.,150.),.PIECEWISE_BEZIER_KNOTS.);
#260 = CARTESIAN_POINT('',(456.93238454337,17.406947982605,
    -422.1184885781));
#261 = CARTESIAN_POINT('',(587.48449441291,17.406947982605,
    -422.1184885781));
#262 = B_SPLINE_SURFACE_WITH_KNOTS('',1,1,(
    (#263,#264)
    ,(#265,#266
    )),.UNSPECIFIED.,.F.,.F.,.F.,(2,2),(2,2),(-1.E+03,0.),(0.,1.2E+03),
  .PIECEWISE_BEZIER_KNOTS.);
#263 = CARTESIAN_POINT('',(0.,17.406947982605,-870.3473991302));
#264 = CARTESIAN_POINT('',(1.044416878956E+03,17.406947982605,
    -870.3473991302));
#265 = CARTESIAN_POINT('',(0.,17.406947982605,0.));
#266 = CARTESIAN_POINT('',(1.044416878956E+03,17.406947982605,0.));
#267 = ADVANCED_FACE('',(#268),#282,.F.);
#268 = FACE_BOUND('',#269,.T.);
#269 = EDGE_LOOP('',(#270,#275,#276,#281));
#270 = ORIENTED_EDGE('',*,*,#271,.T.);
#271 = EDGE_CURVE('',#142,#184,#272,.T.);
#272 = B_SPLINE_CURVE_WITH_KNOTS('',1,(#273,#274),.UNSPECIFIED.,.F.,.F.,
  (2,2),(0.,50.001),.PIECEWISE_BEZIER_KNOTS.);
#273 = CARTESIAN_POINT('',(87.034739913024,-26.1112923213,
    -87.03473991302));
#274 = CARTESIAN_POINT('',(87.034739913024,17.406947982605,
    -87.03473991302));
#275 = ORIENTED_EDGE('',*,*,#218,.T.);
#276 = ORIENTED_EDGE('',*,*,#277,.F.);
#277 = EDGE_CURVE('',#156,#212,#278,.T.);
#278 = B_SPLINE_CURVE_WITH_KNOTS('',1,(#279,#280),.UNSPECIFIED.,.F.,.F.,
  (2,2),(0.,50.001),.PIECEWISE_BEZIER_KNOTS.);
#279 = CARTESIAN_POINT('',(957.38213904326,-26.1112923213,
    -87.03473991302));
#280 = CARTESIAN_POINT('',(957.38213904326,17.406947982605,
    -87.03473991302));
#281 = ORIENTED_EDGE('',*,*,#162,.F.);
#282 = B_SPLINE_SURFACE_WITH_KNOTS('',1,1,(
    (#283,#284)
    ,(#285,#286
    )),.UNSPECIFIED.,.F.,.F.,.F.,(2,2),(2,2),(-500.,500.),(-25.0005,
    25.0005),.PIECEWISE_BEZIER_KNOTS.);
#283 = CARTESIAN_POINT('',(87.034739913024,-26.1112923213,
    -87.03473991302));
#284 = CARTESIAN_POINT('',(87.034739913024,17.406947982605,
    -87.03473991302));
#285 = CARTESIAN_POINT('',(957.38213904326,-26.1112923213,
    -87.03473991302));
#286 = CARTESIAN_POINT('',(957.38213904326,17.406947982605,
    -87.03473991302));
#287 = ADVANCED_FACE('',(#288),#298,.F.);
#288 = FACE_BOUND('',#289,.T.);
#289 = EDGE_LOOP('',(#290,#291,#292,#297));
#290 = ORIENTED_EDGE('',*,*,#277,.T.);
#291 = ORIENTED_EDGE('',*,*,#211,.T.);
#292 = ORIENTED_EDGE('',*,*,#293,.F.);
#293 = EDGE_CURVE('',#149,#205,#294,.T.);
#294 = B_SPLINE_CURVE_WITH_KNOTS('',1,(#295,#296),.UNSPECIFIED.,.F.,.F.,
  (2,2),(0.,50.001),.PIECEWISE_BEZIER_KNOTS.);
#295 = CARTESIAN_POINT('',(957.38213904326,-26.1112923213,
    -435.1736995651));
#296 = CARTESIAN_POINT('',(957.38213904326,17.406947982605,
    -435.1736995651));
#297 = ORIENTED_EDGE('',*,*,#155,.F.);
#298 = B_SPLINE_SURFACE_WITH_KNOTS('',1,1,(
    (#299,#300)
    ,(#301,#302
    )),.UNSPECIFIED.,.F.,.F.,.F.,(2,2),(2,2),(-200.,200.),(-25.0005,
    25.0005),.PIECEWISE_BEZIER_KNOTS.);
#299 = CARTESIAN_POINT('',(957.38213904326,17.406947982605,
    -435.1736995651));
#300 = CARTESIAN_POINT('',(957.38213904326,-26.1112923213,
    -435.1736995651));
#301 = CARTESIAN_POINT('',(957.38213904326,17.406947982605,
    -87.03473991302));
#302 = CARTESIAN_POINT('',(957.38213904326,-26.1112923213,
    -87.03473991302));
#303 = ADVANCED_FACE('',(#304),#316,.F.);
#304 = FACE_BOUND('',#305,.F.);
#305 = EDGE_LOOP('',(#306,#307,#312,#313,#314,#315));
#306 = ORIENTED_EDGE('',*,*,#148,.T.);
#307 = ORIENTED_EDGE('',*,*,#308,.T.);
#308 = EDGE_CURVE('',#140,#182,#309,.T.);
#309 = B_SPLINE_CURVE_WITH_KNOTS('',1,(#310,#311),.UNSPECIFIED.,.F.,.F.,
  (2,2),(0.,50.001),.PIECEWISE_BEZIER_KNOTS.);
#310 = CARTESIAN_POINT('',(87.034739913024,-26.1112923213,
    -435.1736995651));
#311 = CARTESIAN_POINT('',(87.034739913024,17.406947982605,
    -435.1736995651));
#312 = ORIENTED_EDGE('',*,*,#190,.F.);
#313 = ORIENTED_EDGE('',*,*,#197,.F.);
#314 = ORIENTED_EDGE('',*,*,#204,.F.);
#315 = ORIENTED_EDGE('',*,*,#293,.F.);
#316 = B_SPLINE_SURFACE_WITH_KNOTS('',1,1,(
    (#317,#318)
    ,(#319,#320
    )),.UNSPECIFIED.,.F.,.F.,.F.,(2,2),(2,2),(-500.,500.),(-25.0005,
    25.0005),.PIECEWISE_BEZIER_KNOTS.);
#317 = CARTESIAN_POINT('',(957.38213904326,-26.1112923213,
    -435.1736995651));
#318 = CARTESIAN_POINT('',(957.38213904326,17.406947982605,
    -435.1736995651));
#319 = CARTESIAN_POINT('',(87.034739913024,-26.1112923213,
    -435.1736995651));
#320 = CARTESIAN_POINT('',(87.034739913024,17.406947982605,
    -435.1736995651));
#321 = ADVANCED_FACE('',(#322),#328,.F.);
#322 = FACE_BOUND('',#323,.T.);
#323 = EDGE_LOOP('',(#324,#325,#326,#327));
#324 = ORIENTED_EDGE('',*,*,#308,.T.);
#325 = ORIENTED_EDGE('',*,*,#181,.T.);
#326 = ORIENTED_EDGE('',*,*,#271,.F.);
#327 = ORIENTED_EDGE('',*,*,#139,.F.);
#328 = B_SPLINE_SURFACE_WITH_KNOTS('',1,1,(
    (#329,#330)
    ,(#331,#332
    )),.UNSPECIFIED.,.F.,.F.,.F.,(2,2),(2,2),(-200.,200.),(-25.0005,
    25.0005),.PIECEWISE_BEZIER_KNOTS.);
#329 = CARTESIAN_POINT('',(87.034739913024,17.406947982605,
    -87.03473991302));
#330 = CARTESIAN_POINT('',(87.034739913024,-26.1112923213,
    -87.03473991302));
#331 = CARTESIAN_POINT('',(87.034739913024,17.406947982605,
    -435.1736995651));
#332 = CARTESIAN_POINT('',(87.034739913024,-26.1112923213,
    -435.1736995651));
#333 = ADVANCED_FACE('',(#334),#356,.T.);
#334 = FACE_BOUND('',#335,.T.);
#335 = EDGE_LOOP('',(#336,#337,#344,#351));
#336 = ORIENTED_EDGE('',*,*,#258,.T.);
#337 = ORIENTED_EDGE('',*,*,#338,.T.);
#338 = EDGE_CURVE('',#252,#339,#341,.T.);
#339 = VERTEX_POINT('',#340);
#340 = CARTESIAN_POINT('',(587.48449441291,43.517369956512,
    -422.1184885781));
#341 = B_SPLINE_CURVE_WITH_KNOTS('',1,(#342,#343),.UNSPECIFIED.,.F.,.F.,
  (2,2),(0.,30.),.PIECEWISE_BEZIER_KNOTS.);
#342 = CARTESIAN_POINT('',(587.48449441291,17.406947982605,
    -422.1184885781));
#343 = CARTESIAN_POINT('',(587.48449441291,43.517369956512,
    -422.1184885781));
#344 = ORIENTED_EDGE('',*,*,#345,.F.);
#345 = EDGE_CURVE('',#346,#339,#348,.T.);
#346 = VERTEX_POINT('',#347);
#347 = CARTESIAN_POINT('',(456.93238454337,43.517369956512,
    -422.1184885781));
#348 = B_SPLINE_CURVE_WITH_KNOTS('',1,(#349,#350),.UNSPECIFIED.,.F.,.F.,
  (2,2),(0.,150.),.PIECEWISE_BEZIER_KNOTS.);
#349 = CARTESIAN_POINT('',(456.93238454337,43.517369956512,
    -422.1184885781));
#350 = CARTESIAN_POINT('',(587.48449441291,43.517369956512,
    -422.1184885781));
#351 = ORIENTED_EDGE('',*,*,#352,.F.);
#352 = EDGE_CURVE('',#226,#346,#353,.T.);
#353 = B_SPLINE_CURVE_WITH_KNOTS('',1,(#354,#355),.UNSPECIFIED.,.F.,.F.,
  (2,2),(0.,30.),.PIECEWISE_BEZIER_KNOTS.);
#354 = CARTESIAN_POINT('',(456.93238454337,17.406947982605,
    -422.1184885781));
#355 = CARTESIAN_POINT('',(456.93238454337,43.517369956512,
    -422.1184885781));
#356 = B_SPLINE_SURFACE_WITH_KNOTS('',1,1,(
    (#357,#358)
    ,(#359,#360
    )),.UNSPECIFIED.,.F.,.F.,.F.,(2,2),(2,2),(-75.,75.),(-15.,15.),
  .PIECEWISE_BEZIER_KNOTS.);
#357 = CARTESIAN_POINT('',(456.93238454337,17.406947982605,
    -422.1184885781));
#358 = CARTESIAN_POINT('',(456.93238454337,43.517369956512,
    -422.1184885781));
#359 = CARTESIAN_POINT('',(587.48449441291,17.406947982605,
    -422.1184885781));
#360 = CARTESIAN_POINT('',(587.48449441291,43.517369956512,
    -422.1184885781));
#361 = ADVANCED_FACE('',(#362),#379,.T.);
#362 = FACE_BOUND('',#363,.T.);
#363 = EDGE_LOOP('',(#364,#365,#372,#377,#378));
#364 = ORIENTED_EDGE('',*,*,#246,.T.);
#365 = ORIENTED_EDGE('',*,*,#366,.T.);
#366 = EDGE_CURVE('',#240,#367,#369,.T.);
#367 = VERTEX_POINT('',#368);
#368 = CARTESIAN_POINT('',(587.48449441291,43.517369956512,
    -448.228910552));
#369 = B_SPLINE_CURVE_WITH_KNOTS('',1,(#370,#371),.UNSPECIFIED.,.F.,.F.,
  (2,2),(0.,30.),.PIECEWISE_BEZIER_KNOTS.);
#370 = CARTESIAN_POINT('',(587.48449441291,17.406947982605,
    -448.228910552));
#371 = CARTESIAN_POINT('',(587.48449441291,43.517369956512,
    -448.228910552));
#372 = ORIENTED_EDGE('',*,*,#373,.F.);
#373 = EDGE_CURVE('',#339,#367,#374,.T.);
#374 = B_SPLINE_CURVE_WITH_KNOTS('',1,(#375,#376),.UNSPECIFIED.,.F.,.F.,
  (2,2),(0.,30.),.PIECEWISE_BEZIER_KNOTS.);
#375 = CARTESIAN_POINT('',(587.48449441291,43.517369956512,
    -422.1184885781));
#376 = CARTESIAN_POINT('',(587.48449441291,43.517369956512,
    -448.228910552));
#377 = ORIENTED_EDGE('',*,*,#338,.F.);
#378 = ORIENTED_EDGE('',*,*,#251,.T.);
#379 = B_SPLINE_SURFACE_WITH_KNOTS('',1,1,(
    (#380,#381)
    ,(#382,#383
    )),.UNSPECIFIED.,.F.,.F.,.F.,(2,2),(2,2),(-15.,15.),(-15.,15.),
  .PIECEWISE_BEZIER_KNOTS.);
#380 = CARTESIAN_POINT('',(587.48449441291,43.517369956512,
    -448.228910552));
#381 = CARTESIAN_POINT('',(587.48449441291,17.406947982605,
    -448.228910552));
#382 = CARTESIAN_POINT('',(587.48449441291,43.517369956512,
    -422.1184885781));
#383 = CARTESIAN_POINT('',(587.48449441291,17.406947982605,
    -422.1184885781));
#384 = ADVANCED_FACE('',(#385),#401,.T.);
#385 = FACE_BOUND('',#386,.T.);
#386 = EDGE_LOOP('',(#387,#388,#395,#400));
#387 = ORIENTED_EDGE('',*,*,#239,.T.);
#388 = ORIENTED_EDGE('',*,*,#389,.T.);
#389 = EDGE_CURVE('',#233,#390,#392,.T.);
#390 = VERTEX_POINT('',#391);
#391 = CARTESIAN_POINT('',(456.93238454337,43.517369956512,
    -448.228910552));
#392 = B_SPLINE_CURVE_WITH_KNOTS('',1,(#393,#394),.UNSPECIFIED.,.F.,.F.,
  (2,2),(0.,30.),.PIECEWISE_BEZIER_KNOTS.);
#393 = CARTESIAN_POINT('',(456.93238454337,17.406947982605,
    -448.228910552));
#394 = CARTESIAN_POINT('',(456.93238454337,43.517369956512,
    -448.228910552));
#395 = ORIENTED_EDGE('',*,*,#396,.F.);
#396 = EDGE_CURVE('',#367,#390,#397,.T.);
#397 = B_SPLINE_CURVE_WITH_KNOTS('',1,(#398,#399),.UNSPECIFIED.,.F.,.F.,
  (2,2),(0.,150.),.PIECEWISE_BEZIER_KNOTS.);
#398 = CARTESIAN_POINT('',(587.48449441291,43.517369956512,
    -448.228910552));
#399 = CARTESIAN_POINT('',(456.93238454337,43.517369956512,
    -448.228910552));
#400 = ORIENTED_EDGE('',*,*,#366,.F.);
#401 = B_SPLINE_SURFACE_WITH_KNOTS('',1,1,(
    (#402,#403)
    ,(#404,#405
    )),.UNSPECIFIED.,.F.,.F.,.F.,(2,2),(2,2),(-75.,75.),(-15.,15.),
  .PIECEWISE_BEZIER_KNOTS.);
#402 = CARTESIAN_POINT('',(587.48449441291,17.406947982605,
    -448.228910552));
#403 = CARTESIAN_POINT('',(587.48449441291,43.517369956512,
    -448.228910552));
#404 = CARTESIAN_POINT('',(456.93238454337,17.406947982605,
    -448.228910552));
#405 = CARTESIAN_POINT('',(456.93238454337,43.517369956512,
    -448.228910552));
#406 = ADVANCED_FACE('',(#407),#418,.T.);
#407 = FACE_BOUND('',#408,.T.);
#408 = EDGE_LOOP('',(#409,#410,#411,#416,#417));
#409 = ORIENTED_EDGE('',*,*,#225,.T.);
#410 = ORIENTED_EDGE('',*,*,#352,.T.);
#411 = ORIENTED_EDGE('',*,*,#412,.F.);
#412 = EDGE_CURVE('',#390,#346,#413,.T.);
#413 = B_SPLINE_CURVE_WITH_KNOTS('',1,(#414,#415),.UNSPECIFIED.,.F.,.F.,
  (2,2),(0.,30.),.PIECEWISE_BEZIER_KNOTS.);
#414 = CARTESIAN_POINT('',(456.93238454337,43.517369956512,
    -448.228910552));
#415 = CARTESIAN_POINT('',(456.93238454337,43.517369956512,
    -422.1184885781));
#416 = ORIENTED_EDGE('',*,*,#389,.F.);
#417 = ORIENTED_EDGE('',*,*,#232,.T.);
#418 = B_SPLINE_SURFACE_WITH_KNOTS('',1,1,(
    (#419,#420)
    ,(#421,#422
    )),.UNSPECIFIED.,.F.,.F.,.F.,(2,2),(2,2),(-15.,15.),(-15.,15.),
  .PIECEWISE_BEZIER_KNOTS.);
#419 = CARTESIAN_POINT('',(456.93238454337,43.517369956512,
    -422.1184885781));
#420 = CARTESIAN_POINT('',(456.93238454337,17.406947982605,
    -422.1184885781));
#421 = CARTESIAN_POINT('',(456.93238454337,43.517369956512,
    -448.228910552));
#422 = CARTESIAN_POINT('',(456.93238454337,17.406947982605,
    -448.228910552));
#423 = ADVANCED_FACE('',(#424),#430,.T.);
#424 = FACE_BOUND('',#425,.T.);
#425 = EDGE_LOOP('',(#426,#427,#428,#429));
#426 = ORIENTED_EDGE('',*,*,#345,.T.);
#427 = ORIENTED_EDGE('',*,*,#373,.T.);
#428 = ORIENTED_EDGE('',*,*,#396,.T.);
#429 = ORIENTED_EDGE('',*,*,#412,.T.);
#430 = B_SPLINE_SURFACE_WITH_KNOTS('',1,1,(
    (#431,#432)
    ,(#433,#434
    )),.UNSPECIFIED.,.F.,.F.,.F.,(2,2),(2,2),(-515.,-485.),(525.,675.),
  .PIECEWISE_BEZIER_KNOTS.);
#431 = CARTESIAN_POINT('',(456.93238454337,43.517369956512,
    -448.228910552));
#432 = CARTESIAN_POINT('',(587.48449441291,43.517369956512,
    -448.228910552));
#433 = CARTESIAN_POINT('',(456.93238454337,43.517369956512,
    -422.1184885781));
#434 = CARTESIAN_POINT('',(587.48449441291,43.517369956512,
    -422.1184885781));
#435 = ( GEOMETRIC_REPRESENTATION_CONTEXT(3) 
GLOBAL_UNCERTAINTY_ASSIGNED_CONTEXT((#439)) GLOBAL_UNIT_ASSIGNED_CONTEXT
((#436,#437,#438)) REPRESENTATION_CONTEXT('Context #1',
  '3D Context with UNIT and UNCERTAINTY') );
#436 = ( LENGTH_UNIT() NAMED_UNIT(*) SI_UNIT(.MILLI.,.METRE.) );
#437 = ( NAMED_UNIT(*) PLANE_ANGLE_UNIT() SI_UNIT($,.RADIAN.) );
#438 = ( NAMED_UNIT(*) SI_UNIT($,.STERADIAN.) SOLID_ANGLE_UNIT() );
#439 = UNCERTAINTY_MEASURE_WITH_UNIT(LENGTH_MEASURE(1.E-04),#436,
  'distance_accuracy_value','confusion accuracy');
#440 = PRODUCT_RELATED_PRODUCT_CATEGORY('part',$,(#7));
ENDSEC;
END-ISO-10303-21;
