ISO-10303-21;
HEADER;
FILE_DESCRIPTION(('FreeCAD Model'),'2;1');
FILE_NAME('Open CASCADE Shape Model','2025-05-03T13:59:16',('FreeCAD'),(
    'FreeCAD'),'Open CASCADE STEP processor 7.6','FreeCAD','Unknown');
FILE_SCHEMA(('AUTOMOTIVE_DESIGN { 1 0 10303 214 1 1 1 1 }'));
ENDSEC;
DATA;
#1 = APPLICATION_PROTOCOL_DEFINITION('international standard',
  'automotive_design',2000,#2);
#2 = APPLICATION_CONTEXT(
  'core data for automotive mechanical design processes');
#3 = SHAPE_DEFINITION_REPRESENTATION(#4,#10);
#4 = PRODUCT_DEFINITION_SHAPE('','',#5);
#5 = PRODUCT_DEFINITION('design','',#6,#9);
#6 = PRODUCT_DEFINITION_FORMATION('','',#7);
#7 = PRODUCT('Open CASCADE STEP translator 7.6 1',
  'Open CASCADE STEP translator 7.6 1','',(#8));
#8 = PRODUCT_CONTEXT('',#2,'mechanical');
#9 = PRODUCT_DEFINITION_CONTEXT('part definition',#2,'design');
#10 = SHAPE_REPRESENTATION('',(#11,#15,#143),#211);
#11 = AXIS2_PLACEMENT_3D('',#12,#13,#14);
#12 = CARTESIAN_POINT('',(0.,0.,0.));
#13 = DIRECTION('',(0.,0.,1.));
#14 = DIRECTION('',(1.,0.,-0.));
#15 = MANIFOLD_SOLID_BREP('',#16);
#16 = CLOSED_SHELL('',(#17,#65,#74,#97,#134));
#17 = ADVANCED_FACE('',(#18),#50,.T.);
#18 = FACE_BOUND('',#19,.T.);
#19 = EDGE_LOOP('',(#20,#32,#39,#49));
#20 = ORIENTED_EDGE('',*,*,#21,.T.);
#21 = EDGE_CURVE('',#22,#22,#24,.T.);
#22 = VERTEX_POINT('',#23);
#23 = CARTESIAN_POINT('',(31.610906364739,0.,0.));
#24 = ( BOUNDED_CURVE() B_SPLINE_CURVE(2,(#25,#26,#27,#28,#29,#30,#31),
.UNSPECIFIED.,.T.,.F.) B_SPLINE_CURVE_WITH_KNOTS((1,2,2,2,2,1),(
    -2.094395102393,0.,2.094395102393,4.188790204786,6.28318530718,
8.377580409573),.UNSPECIFIED.) CURVE() GEOMETRIC_REPRESENTATION_ITEM() 
RATIONAL_B_SPLINE_CURVE((1.,0.5,1.,0.5,1.,0.5,1.)) REPRESENTATION_ITEM(
  '') );
#25 = CARTESIAN_POINT('',(31.610906364739,0.,0.));
#26 = CARTESIAN_POINT('',(31.610906364739,0.,-54.75169589703));
#27 = CARTESIAN_POINT('',(-15.80545318236,0.,-27.37584794851));
#28 = CARTESIAN_POINT('',(-63.22181272947,0.,-1.11457793358E-14));
#29 = CARTESIAN_POINT('',(-15.80545318236,0.,27.375847948515));
#30 = CARTESIAN_POINT('',(31.610906364738,0.,54.75169589703));
#31 = CARTESIAN_POINT('',(31.610906364739,0.,0.));
#32 = ORIENTED_EDGE('',*,*,#33,.T.);
#33 = EDGE_CURVE('',#22,#34,#36,.T.);
#34 = VERTEX_POINT('',#35);
#35 = CARTESIAN_POINT('',(31.610906364739,180.63375065564,0.));
#36 = B_SPLINE_CURVE_WITH_KNOTS('',1,(#37,#38),.UNSPECIFIED.,.F.,.F.,(2,
    2),(-100.,100.),.PIECEWISE_BEZIER_KNOTS.);
#37 = CARTESIAN_POINT('',(31.610906364739,0.,0.));
#38 = CARTESIAN_POINT('',(31.610906364739,180.63375065564,0.));
#39 = ORIENTED_EDGE('',*,*,#40,.F.);
#40 = EDGE_CURVE('',#34,#34,#41,.T.);
#41 = ( BOUNDED_CURVE() B_SPLINE_CURVE(2,(#42,#43,#44,#45,#46,#47,#48),
.UNSPECIFIED.,.T.,.F.) B_SPLINE_CURVE_WITH_KNOTS((1,2,2,2,2,1),(
    -2.094395102393,0.,2.094395102393,4.188790204786,6.28318530718,
8.377580409573),.UNSPECIFIED.) CURVE() GEOMETRIC_REPRESENTATION_ITEM() 
RATIONAL_B_SPLINE_CURVE((1.,0.5,1.,0.5,1.,0.5,1.)) REPRESENTATION_ITEM(
  '') );
#42 = CARTESIAN_POINT('',(31.610906364739,180.63375065564,0.));
#43 = CARTESIAN_POINT('',(31.610906364739,180.63375065564,
    -54.75169589703));
#44 = CARTESIAN_POINT('',(-15.80545318236,180.63375065564,
    -27.37584794851));
#45 = CARTESIAN_POINT('',(-63.22181272947,180.63375065564,
    -1.11457793358E-14));
#46 = CARTESIAN_POINT('',(-15.80545318236,180.63375065564,
    27.375847948515));
#47 = CARTESIAN_POINT('',(31.610906364738,180.63375065564,54.75169589703
    ));
#48 = CARTESIAN_POINT('',(31.610906364739,180.63375065564,0.));
#49 = ORIENTED_EDGE('',*,*,#33,.F.);
#50 = ( BOUNDED_SURFACE() B_SPLINE_SURFACE(2,1,(
    (#51,#52)
    ,(#53,#54)
    ,(#55,#56)
    ,(#57,#58)
    ,(#59,#60)
    ,(#61,#62)
,(#63,#64
    )),.UNSPECIFIED.,.T.,.F.,.F.) B_SPLINE_SURFACE_WITH_KNOTS((1,2,2,2,2
    ,1),(2,2),(-2.094395102393,0.,2.094395102393,4.188790204786,
    6.28318530718,8.377580409573),(-100.,100.),.UNSPECIFIED.) 
GEOMETRIC_REPRESENTATION_ITEM() RATIONAL_B_SPLINE_SURFACE((
    (1.,1.)
    ,(0.5,0.5)
    ,(1.,1.)
    ,(0.5,0.5)
    ,(1.,1.)
    ,(0.5,0.5)
,(1.,1.))) REPRESENTATION_ITEM('') SURFACE() );
#51 = CARTESIAN_POINT('',(31.610906364739,0.,0.));
#52 = CARTESIAN_POINT('',(31.610906364739,180.63375065564,0.));
#53 = CARTESIAN_POINT('',(31.610906364739,0.,-54.75169589703));
#54 = CARTESIAN_POINT('',(31.610906364739,180.63375065564,
    -54.75169589703));
#55 = CARTESIAN_POINT('',(-15.80545318236,0.,-27.37584794851));
#56 = CARTESIAN_POINT('',(-15.80545318236,180.63375065564,
    -27.37584794851));
#57 = CARTESIAN_POINT('',(-63.22181272947,0.,-1.11457793358E-14));
#58 = CARTESIAN_POINT('',(-63.22181272947,180.63375065564,
    -1.11457793358E-14));
#59 = CARTESIAN_POINT('',(-15.80545318236,0.,27.375847948515));
#60 = CARTESIAN_POINT('',(-15.80545318236,180.63375065564,
    27.375847948515));
#61 = CARTESIAN_POINT('',(31.610906364738,0.,54.75169589703));
#62 = CARTESIAN_POINT('',(31.610906364738,180.63375065564,54.75169589703
    ));
#63 = CARTESIAN_POINT('',(31.610906364739,0.,0.));
#64 = CARTESIAN_POINT('',(31.610906364739,180.63375065564,0.));
#65 = ADVANCED_FACE('',(#66),#69,.F.);
#66 = FACE_BOUND('',#67,.T.);
#67 = EDGE_LOOP('',(#68));
#68 = ORIENTED_EDGE('',*,*,#21,.F.);
#69 = B_SPLINE_SURFACE_WITH_KNOTS('',1,1,(
    (#70,#71)
    ,(#72,#73
    )),.UNSPECIFIED.,.F.,.F.,.F.,(2,2),(2,2),(-35.,35.),(-35.,35.),
  .PIECEWISE_BEZIER_KNOTS.);
#70 = CARTESIAN_POINT('',(-31.61090636473,0.,-31.61090636473));
#71 = CARTESIAN_POINT('',(31.610906364739,0.,-31.61090636473));
#72 = CARTESIAN_POINT('',(-31.61090636473,0.,31.610906364739));
#73 = CARTESIAN_POINT('',(31.610906364739,0.,31.610906364739));
#74 = ADVANCED_FACE('',(#75,#78),#92,.T.);
#75 = FACE_BOUND('',#76,.T.);
#76 = EDGE_LOOP('',(#77));
#77 = ORIENTED_EDGE('',*,*,#40,.T.);
#78 = FACE_BOUND('',#79,.T.);
#79 = EDGE_LOOP('',(#80));
#80 = ORIENTED_EDGE('',*,*,#81,.F.);
#81 = EDGE_CURVE('',#82,#82,#84,.T.);
#82 = VERTEX_POINT('',#83);
#83 = CARTESIAN_POINT('',(13.547531299174,180.63375065564,0.));
#84 = ( BOUNDED_CURVE() B_SPLINE_CURVE(2,(#85,#86,#87,#88,#89,#90,#91),
.UNSPECIFIED.,.T.,.F.) B_SPLINE_CURVE_WITH_KNOTS((1,2,2,2,2,1),(
    -2.094395102393,0.,2.094395102393,4.188790204786,6.28318530718,
8.377580409573),.UNSPECIFIED.) CURVE() GEOMETRIC_REPRESENTATION_ITEM() 
RATIONAL_B_SPLINE_CURVE((1.,0.5,1.,0.5,1.,0.5,1.)) REPRESENTATION_ITEM(
  '') );
#85 = CARTESIAN_POINT('',(13.547531299174,180.63375065564,0.));
#86 = CARTESIAN_POINT('',(13.547531299174,180.63375065564,
    -23.46501252729));
#87 = CARTESIAN_POINT('',(-6.773765649587,180.63375065564,
    -11.73250626364));
#88 = CARTESIAN_POINT('',(-27.09506259834,180.63375065564,
    -3.318188168376E-15));
#89 = CARTESIAN_POINT('',(-6.773765649587,180.63375065564,
    11.732506263649));
#90 = CARTESIAN_POINT('',(13.547531299174,180.63375065564,
    23.465012527298));
#91 = CARTESIAN_POINT('',(13.547531299174,180.63375065564,0.));
#92 = B_SPLINE_SURFACE_WITH_KNOTS('',1,1,(
    (#93,#94)
    ,(#95,#96
    )),.UNSPECIFIED.,.F.,.F.,.F.,(2,2),(2,2),(-35.,35.),(-35.,35.),
  .PIECEWISE_BEZIER_KNOTS.);
#93 = CARTESIAN_POINT('',(-31.61090636473,180.63375065564,
    -31.61090636473));
#94 = CARTESIAN_POINT('',(31.610906364739,180.63375065564,
    -31.61090636473));
#95 = CARTESIAN_POINT('',(-31.61090636473,180.63375065564,
    31.610906364739));
#96 = CARTESIAN_POINT('',(31.610906364739,180.63375065564,
    31.610906364739));
#97 = ADVANCED_FACE('',(#98),#119,.T.);
#98 = FACE_BOUND('',#99,.T.);
#99 = EDGE_LOOP('',(#100,#101,#108,#118));
#100 = ORIENTED_EDGE('',*,*,#81,.T.);
#101 = ORIENTED_EDGE('',*,*,#102,.T.);
#102 = EDGE_CURVE('',#82,#103,#105,.T.);
#103 = VERTEX_POINT('',#104);
#104 = CARTESIAN_POINT('',(13.547531299174,198.69712572121,0.));
#105 = B_SPLINE_CURVE_WITH_KNOTS('',1,(#106,#107),.UNSPECIFIED.,.F.,.F.,
  (2,2),(-10.,10.),.PIECEWISE_BEZIER_KNOTS.);
#106 = CARTESIAN_POINT('',(13.547531299174,180.63375065564,0.));
#107 = CARTESIAN_POINT('',(13.547531299174,198.69712572121,0.));
#108 = ORIENTED_EDGE('',*,*,#109,.F.);
#109 = EDGE_CURVE('',#103,#103,#110,.T.);
#110 = ( BOUNDED_CURVE() B_SPLINE_CURVE(2,(#111,#112,#113,#114,#115,#116
,#117),.UNSPECIFIED.,.T.,.F.) B_SPLINE_CURVE_WITH_KNOTS((1,2,2,2,2,1),(
    -2.094395102393,0.,2.094395102393,4.188790204786,6.28318530718,
8.377580409573),.UNSPECIFIED.) CURVE() GEOMETRIC_REPRESENTATION_ITEM() 
RATIONAL_B_SPLINE_CURVE((1.,0.5,1.,0.5,1.,0.5,1.)) REPRESENTATION_ITEM(
  '') );
#111 = CARTESIAN_POINT('',(13.547531299174,198.69712572121,0.));
#112 = CARTESIAN_POINT('',(13.547531299174,198.69712572121,
    -23.46501252729));
#113 = CARTESIAN_POINT('',(-6.773765649587,198.69712572121,
    -11.73250626364));
#114 = CARTESIAN_POINT('',(-27.09506259834,198.69712572121,
    -3.318188168376E-15));
#115 = CARTESIAN_POINT('',(-6.773765649587,198.69712572121,
    11.732506263649));
#116 = CARTESIAN_POINT('',(13.547531299174,198.69712572121,
    23.465012527298));
#117 = CARTESIAN_POINT('',(13.547531299174,198.69712572121,0.));
#118 = ORIENTED_EDGE('',*,*,#102,.F.);
#119 = ( BOUNDED_SURFACE() B_SPLINE_SURFACE(2,1,(
    (#120,#121)
    ,(#122,#123)
    ,(#124,#125)
    ,(#126,#127)
    ,(#128,#129)
    ,(#130,#131)
,(#132,#133
    )),.UNSPECIFIED.,.T.,.F.,.F.) B_SPLINE_SURFACE_WITH_KNOTS((1,2,2,2,2
    ,1),(2,2),(-2.094395102393,0.,2.094395102393,4.188790204786,
    6.28318530718,8.377580409573),(-10.,10.),.UNSPECIFIED.) 
GEOMETRIC_REPRESENTATION_ITEM() RATIONAL_B_SPLINE_SURFACE((
    (1.,1.)
    ,(0.5,0.5)
    ,(1.,1.)
    ,(0.5,0.5)
    ,(1.,1.)
    ,(0.5,0.5)
,(1.,1.))) REPRESENTATION_ITEM('') SURFACE() );
#120 = CARTESIAN_POINT('',(13.547531299174,180.63375065564,0.));
#121 = CARTESIAN_POINT('',(13.547531299174,198.69712572121,0.));
#122 = CARTESIAN_POINT('',(13.547531299174,180.63375065564,
    -23.46501252729));
#123 = CARTESIAN_POINT('',(13.547531299174,198.69712572121,
    -23.46501252729));
#124 = CARTESIAN_POINT('',(-6.773765649587,180.63375065564,
    -11.73250626364));
#125 = CARTESIAN_POINT('',(-6.773765649587,198.69712572121,
    -11.73250626364));
#126 = CARTESIAN_POINT('',(-27.09506259834,180.63375065564,
    -3.318188168376E-15));
#127 = CARTESIAN_POINT('',(-27.09506259834,198.69712572121,
    -3.318188168376E-15));
#128 = CARTESIAN_POINT('',(-6.773765649587,180.63375065564,
    11.732506263649));
#129 = CARTESIAN_POINT('',(-6.773765649587,198.69712572121,
    11.732506263649));
#130 = CARTESIAN_POINT('',(13.547531299174,180.63375065564,
    23.465012527298));
#131 = CARTESIAN_POINT('',(13.547531299174,198.69712572121,
    23.465012527298));
#132 = CARTESIAN_POINT('',(13.547531299174,180.63375065564,0.));
#133 = CARTESIAN_POINT('',(13.547531299174,198.69712572121,0.));
#134 = ADVANCED_FACE('',(#135),#138,.T.);
#135 = FACE_BOUND('',#136,.T.);
#136 = EDGE_LOOP('',(#137));
#137 = ORIENTED_EDGE('',*,*,#109,.T.);
#138 = B_SPLINE_SURFACE_WITH_KNOTS('',1,1,(
    (#139,#140)
    ,(#141,#142
    )),.UNSPECIFIED.,.F.,.F.,.F.,(2,2),(2,2),(-15.,15.),(-15.,15.),
  .PIECEWISE_BEZIER_KNOTS.);
#139 = CARTESIAN_POINT('',(-13.54753129917,198.69712572121,
    -13.54753129917));
#140 = CARTESIAN_POINT('',(13.547531299174,198.69712572121,
    -13.54753129917));
#141 = CARTESIAN_POINT('',(-13.54753129917,198.69712572121,
    13.547531299174));
#142 = CARTESIAN_POINT('',(13.547531299174,198.69712572121,
    13.547531299174));
#143 = MANIFOLD_SOLID_BREP('',#144);
#144 = CLOSED_SHELL('',(#145,#193,#202));
#145 = ADVANCED_FACE('',(#146),#178,.T.);
#146 = FACE_BOUND('',#147,.T.);
#147 = EDGE_LOOP('',(#148,#160,#167,#177));
#148 = ORIENTED_EDGE('',*,*,#149,.T.);
#149 = EDGE_CURVE('',#150,#150,#152,.T.);
#150 = VERTEX_POINT('',#151);
#151 = CARTESIAN_POINT('',(14.450700052452,198.69712572121,0.));
#152 = ( BOUNDED_CURVE() B_SPLINE_CURVE(2,(#153,#154,#155,#156,#157,#158
,#159),.UNSPECIFIED.,.T.,.F.) B_SPLINE_CURVE_WITH_KNOTS((1,2,2,2,2,1),(
    -2.094395102393,0.,2.094395102393,4.188790204786,6.28318530718,
8.377580409573),.UNSPECIFIED.) CURVE() GEOMETRIC_REPRESENTATION_ITEM() 
RATIONAL_B_SPLINE_CURVE((1.,0.5,1.,0.5,1.,0.5,1.)) REPRESENTATION_ITEM(
  '') );
#153 = CARTESIAN_POINT('',(14.450700052452,198.69712572121,0.));
#154 = CARTESIAN_POINT('',(14.450700052452,198.69712572121,
    -25.02934669578));
#155 = CARTESIAN_POINT('',(-7.225350026226,198.69712572121,
    -12.51467334789));
#156 = CARTESIAN_POINT('',(-28.9014001049,198.69712572121,
    -6.942740989193E-15));
#157 = CARTESIAN_POINT('',(-7.225350026226,198.69712572121,
    12.514673347892));
#158 = CARTESIAN_POINT('',(14.450700052452,198.69712572121,
    25.029346695785));
#159 = CARTESIAN_POINT('',(14.450700052452,198.69712572121,0.));
#160 = ORIENTED_EDGE('',*,*,#161,.T.);
#161 = EDGE_CURVE('',#150,#162,#164,.T.);
#162 = VERTEX_POINT('',#163);
#163 = CARTESIAN_POINT('',(14.450700052452,212.24465702038,0.));
#164 = B_SPLINE_CURVE_WITH_KNOTS('',1,(#165,#166),.UNSPECIFIED.,.F.,.F.,
  (2,2),(-7.5,7.5),.PIECEWISE_BEZIER_KNOTS.);
#165 = CARTESIAN_POINT('',(14.450700052452,198.69712572121,0.));
#166 = CARTESIAN_POINT('',(14.450700052452,212.24465702038,0.));
#167 = ORIENTED_EDGE('',*,*,#168,.F.);
#168 = EDGE_CURVE('',#162,#162,#169,.T.);
#169 = ( BOUNDED_CURVE() B_SPLINE_CURVE(2,(#170,#171,#172,#173,#174,#175
,#176),.UNSPECIFIED.,.T.,.F.) B_SPLINE_CURVE_WITH_KNOTS((1,2,2,2,2,1),(
    -2.094395102393,0.,2.094395102393,4.188790204786,6.28318530718,
8.377580409573),.UNSPECIFIED.) CURVE() GEOMETRIC_REPRESENTATION_ITEM() 
RATIONAL_B_SPLINE_CURVE((1.,0.5,1.,0.5,1.,0.5,1.)) REPRESENTATION_ITEM(
  '') );
#170 = CARTESIAN_POINT('',(14.450700052452,212.24465702038,0.));
#171 = CARTESIAN_POINT('',(14.450700052452,212.24465702038,
    -25.02934669578));
#172 = CARTESIAN_POINT('',(-7.225350026226,212.24465702038,
    -12.51467334789));
#173 = CARTESIAN_POINT('',(-28.9014001049,212.24465702038,
    -6.942740989193E-15));
#174 = CARTESIAN_POINT('',(-7.225350026226,212.24465702038,
    12.514673347892));
#175 = CARTESIAN_POINT('',(14.450700052452,212.24465702038,
    25.029346695785));
#176 = CARTESIAN_POINT('',(14.450700052452,212.24465702038,0.));
#177 = ORIENTED_EDGE('',*,*,#161,.F.);
#178 = ( BOUNDED_SURFACE() B_SPLINE_SURFACE(2,1,(
    (#179,#180)
    ,(#181,#182)
    ,(#183,#184)
    ,(#185,#186)
    ,(#187,#188)
    ,(#189,#190)
,(#191,#192
    )),.UNSPECIFIED.,.T.,.F.,.F.) B_SPLINE_SURFACE_WITH_KNOTS((1,2,2,2,2
    ,1),(2,2),(-2.094395102393,0.,2.094395102393,4.188790204786,
    6.28318530718,8.377580409573),(-7.5,7.5),.UNSPECIFIED.) 
GEOMETRIC_REPRESENTATION_ITEM() RATIONAL_B_SPLINE_SURFACE((
    (1.,1.)
    ,(0.5,0.5)
    ,(1.,1.)
    ,(0.5,0.5)
    ,(1.,1.)
    ,(0.5,0.5)
,(1.,1.))) REPRESENTATION_ITEM('') SURFACE() );
#179 = CARTESIAN_POINT('',(14.450700052452,198.69712572121,0.));
#180 = CARTESIAN_POINT('',(14.450700052452,212.24465702038,0.));
#181 = CARTESIAN_POINT('',(14.450700052452,198.69712572121,
    -25.02934669578));
#182 = CARTESIAN_POINT('',(14.450700052452,212.24465702038,
    -25.02934669578));
#183 = CARTESIAN_POINT('',(-7.225350026226,198.69712572121,
    -12.51467334789));
#184 = CARTESIAN_POINT('',(-7.225350026226,212.24465702038,
    -12.51467334789));
#185 = CARTESIAN_POINT('',(-28.9014001049,198.69712572121,
    -6.942740989193E-15));
#186 = CARTESIAN_POINT('',(-28.9014001049,212.24465702038,
    -6.942740989193E-15));
#187 = CARTESIAN_POINT('',(-7.225350026226,198.69712572121,
    12.514673347892));
#188 = CARTESIAN_POINT('',(-7.225350026226,212.24465702038,
    12.514673347892));
#189 = CARTESIAN_POINT('',(14.450700052452,198.69712572121,
    25.029346695785));
#190 = CARTESIAN_POINT('',(14.450700052452,212.24465702038,
    25.029346695785));
#191 = CARTESIAN_POINT('',(14.450700052452,198.69712572121,0.));
#192 = CARTESIAN_POINT('',(14.450700052452,212.24465702038,0.));
#193 = ADVANCED_FACE('',(#194),#197,.F.);
#194 = FACE_BOUND('',#195,.T.);
#195 = EDGE_LOOP('',(#196));
#196 = ORIENTED_EDGE('',*,*,#149,.F.);
#197 = B_SPLINE_SURFACE_WITH_KNOTS('',1,1,(
    (#198,#199)
    ,(#200,#201
    )),.UNSPECIFIED.,.F.,.F.,.F.,(2,2),(2,2),(-16.,16.),(-16.,16.),
  .PIECEWISE_BEZIER_KNOTS.);
#198 = CARTESIAN_POINT('',(-14.45070005245,198.69712572121,
    -14.45070005245));
#199 = CARTESIAN_POINT('',(14.450700052452,198.69712572121,
    -14.45070005245));
#200 = CARTESIAN_POINT('',(-14.45070005245,198.69712572121,
    14.450700052452));
#201 = CARTESIAN_POINT('',(14.450700052452,198.69712572121,
    14.450700052452));
#202 = ADVANCED_FACE('',(#203),#206,.T.);
#203 = FACE_BOUND('',#204,.T.);
#204 = EDGE_LOOP('',(#205));
#205 = ORIENTED_EDGE('',*,*,#168,.T.);
#206 = B_SPLINE_SURFACE_WITH_KNOTS('',1,1,(
    (#207,#208)
    ,(#209,#210
    )),.UNSPECIFIED.,.F.,.F.,.F.,(2,2),(2,2),(-16.,16.),(-16.,16.),
  .PIECEWISE_BEZIER_KNOTS.);
#207 = CARTESIAN_POINT('',(-14.45070005245,212.24465702038,
    -14.45070005245));
#208 = CARTESIAN_POINT('',(14.450700052452,212.24465702038,
    -14.45070005245));
#209 = CARTESIAN_POINT('',(-14.45070005245,212.24465702038,
    14.450700052452));
#210 = CARTESIAN_POINT('',(14.450700052452,212.24465702038,
    14.450700052452));
#211 = ( GEOMETRIC_REPRESENTATION_CONTEXT(3) 
GLOBAL_UNCERTAINTY_ASSIGNED_CONTEXT((#215)) GLOBAL_UNIT_ASSIGNED_CONTEXT
((#212,#213,#214)) REPRESENTATION_CONTEXT('Context #1',
  '3D Context with UNIT and UNCERTAINTY') );
#212 = ( LENGTH_UNIT() NAMED_UNIT(*) SI_UNIT(.MILLI.,.METRE.) );
#213 = ( NAMED_UNIT(*) PLANE_ANGLE_UNIT() SI_UNIT($,.RADIAN.) );
#214 = ( NAMED_UNIT(*) SI_UNIT($,.STERADIAN.) SOLID_ANGLE_UNIT() );
#215 = UNCERTAINTY_MEASURE_WITH_UNIT(LENGTH_MEASURE(5.E-06),#212,
  'distance_accuracy_value','confusion accuracy');
#216 = PRODUCT_RELATED_PRODUCT_CATEGORY('part',$,(#7));
ENDSEC;
END-ISO-10303-21;
