ISO-10303-21;
HEADER;
FILE_DESCRIPTION(('FreeCAD Model'),'2;1');
FILE_NAME('Open CASCADE Shape Model','2025-05-03T12:51:29',('FreeCAD'),(
    'FreeCAD'),'Open CASCADE STEP processor 7.6','FreeCAD','Unknown');
FILE_SCHEMA(('AUTOMOTIVE_DESIGN { 1 0 10303 214 1 1 1 1 }'));
ENDSEC;
DATA;
#1 = APPLICATION_PROTOCOL_DEFINITION('international standard',
  'automotive_design',2000,#2);
#2 = APPLICATION_CONTEXT(
  'core data for automotive mechanical design processes');
#3 = SHAPE_DEFINITION_REPRESENTATION(#4,#10);
#4 = PRODUCT_DEFINITION_SHAPE('','',#5);
#5 = PRODUCT_DEFINITION('design','',#6,#9);
#6 = PRODUCT_DEFINITION_FORMATION('','',#7);
#7 = PRODUCT('Open CASCADE STEP translator 7.6 1',
  'Open CASCADE STEP translator 7.6 1','',(#8));
#8 = PRODUCT_CONTEXT('',#2,'mechanical');
#9 = PRODUCT_DEFINITION_CONTEXT('part definition',#2,'design');
#10 = ADVANCED_BREP_SHAPE_REPRESENTATION('',(#11,#15),#413);
#11 = AXIS2_PLACEMENT_3D('',#12,#13,#14);
#12 = CARTESIAN_POINT('',(0.,0.,0.));
#13 = DIRECTION('',(0.,0.,1.));
#14 = DIRECTION('',(1.,0.,-0.));
#15 = MANIFOLD_SOLID_BREP('',#16);
#16 = CLOSED_SHELL('',(#17,#113,#141,#163,#185,#201,#213,#241,#263,#285,
    #301,#313,#341,#363,#385,#401));
#17 = ADVANCED_FACE('',(#18,#48,#78),#108,.T.);
#18 = FACE_BOUND('',#19,.T.);
#19 = EDGE_LOOP('',(#20,#29,#36,#43));
#20 = ORIENTED_EDGE('',*,*,#21,.F.);
#21 = EDGE_CURVE('',#22,#24,#26,.T.);
#22 = VERTEX_POINT('',#23);
#23 = CARTESIAN_POINT('',(805.72476196418,0.,439.48623379864));
#24 = VERTEX_POINT('',#25);
#25 = CARTESIAN_POINT('',(805.72476196418,0.,-439.4862337986));
#26 = B_SPLINE_CURVE_WITH_KNOTS('',1,(#27,#28),.UNSPECIFIED.,.F.,.F.,(2,
    2),(0.,600.),.PIECEWISE_BEZIER_KNOTS.);
#27 = CARTESIAN_POINT('',(805.72476196418,0.,439.48623379864));
#28 = CARTESIAN_POINT('',(805.72476196418,0.,-439.4862337986));
#29 = ORIENTED_EDGE('',*,*,#30,.F.);
#30 = EDGE_CURVE('',#31,#22,#33,.T.);
#31 = VERTEX_POINT('',#32);
#32 = CARTESIAN_POINT('',(-805.7247619641,0.,439.48623379864));
#33 = B_SPLINE_CURVE_WITH_KNOTS('',1,(#34,#35),.UNSPECIFIED.,.F.,.F.,(2,
    2),(0.,1.1E+03),.PIECEWISE_BEZIER_KNOTS.);
#34 = CARTESIAN_POINT('',(-805.7247619641,0.,439.48623379864));
#35 = CARTESIAN_POINT('',(805.72476196418,0.,439.48623379864));
#36 = ORIENTED_EDGE('',*,*,#37,.F.);
#37 = EDGE_CURVE('',#38,#31,#40,.T.);
#38 = VERTEX_POINT('',#39);
#39 = CARTESIAN_POINT('',(-805.7247619641,0.,-439.4862337986));
#40 = B_SPLINE_CURVE_WITH_KNOTS('',1,(#41,#42),.UNSPECIFIED.,.F.,.F.,(2,
    2),(-600.,0.),.PIECEWISE_BEZIER_KNOTS.);
#41 = CARTESIAN_POINT('',(-805.7247619641,0.,-439.4862337986));
#42 = CARTESIAN_POINT('',(-805.7247619641,0.,439.48623379864));
#43 = ORIENTED_EDGE('',*,*,#44,.F.);
#44 = EDGE_CURVE('',#24,#38,#45,.T.);
#45 = B_SPLINE_CURVE_WITH_KNOTS('',1,(#46,#47),.UNSPECIFIED.,.F.,.F.,(2,
    2),(-1.1E+03,-0.),.PIECEWISE_BEZIER_KNOTS.);
#46 = CARTESIAN_POINT('',(805.72476196418,0.,-439.4862337986));
#47 = CARTESIAN_POINT('',(-805.7247619641,0.,-439.4862337986));
#48 = FACE_BOUND('',#49,.T.);
#49 = EDGE_LOOP('',(#50,#59,#66,#73));
#50 = ORIENTED_EDGE('',*,*,#51,.F.);
#51 = EDGE_CURVE('',#52,#54,#56,.T.);
#52 = VERTEX_POINT('',#53);
#53 = CARTESIAN_POINT('',(-703.1779740778,0.,-336.9394459122));
#54 = VERTEX_POINT('',#55);
#55 = CARTESIAN_POINT('',(-673.8788918245,0.,-336.9394459122));
#56 = B_SPLINE_CURVE_WITH_KNOTS('',1,(#57,#58),.UNSPECIFIED.,.F.,.F.,(2,
    2),(0.,20.),.PIECEWISE_BEZIER_KNOTS.);
#57 = CARTESIAN_POINT('',(-703.1779740778,0.,-336.9394459122));
#58 = CARTESIAN_POINT('',(-673.8788918245,0.,-336.9394459122));
#59 = ORIENTED_EDGE('',*,*,#60,.F.);
#60 = EDGE_CURVE('',#61,#52,#63,.T.);
#61 = VERTEX_POINT('',#62);
#62 = CARTESIAN_POINT('',(-703.1779740778,0.,336.93944591229));
#63 = B_SPLINE_CURVE_WITH_KNOTS('',1,(#64,#65),.UNSPECIFIED.,.F.,.F.,(2,
    2),(0.,460.),.PIECEWISE_BEZIER_KNOTS.);
#64 = CARTESIAN_POINT('',(-703.1779740778,0.,336.93944591229));
#65 = CARTESIAN_POINT('',(-703.1779740778,0.,-336.9394459122));
#66 = ORIENTED_EDGE('',*,*,#67,.F.);
#67 = EDGE_CURVE('',#68,#61,#70,.T.);
#68 = VERTEX_POINT('',#69);
#69 = CARTESIAN_POINT('',(-673.8788918245,0.,336.93944591229));
#70 = B_SPLINE_CURVE_WITH_KNOTS('',1,(#71,#72),.UNSPECIFIED.,.F.,.F.,(2,
    2),(-20.,-0.),.PIECEWISE_BEZIER_KNOTS.);
#71 = CARTESIAN_POINT('',(-673.8788918245,0.,336.93944591229));
#72 = CARTESIAN_POINT('',(-703.1779740778,0.,336.93944591229));
#73 = ORIENTED_EDGE('',*,*,#74,.F.);
#74 = EDGE_CURVE('',#54,#68,#75,.T.);
#75 = B_SPLINE_CURVE_WITH_KNOTS('',1,(#76,#77),.UNSPECIFIED.,.F.,.F.,(2,
    2),(-460.,0.),.PIECEWISE_BEZIER_KNOTS.);
#76 = CARTESIAN_POINT('',(-673.8788918245,0.,-336.9394459122));
#77 = CARTESIAN_POINT('',(-673.8788918245,0.,336.93944591229));
#78 = FACE_BOUND('',#79,.T.);
#79 = EDGE_LOOP('',(#80,#89,#96,#103));
#80 = ORIENTED_EDGE('',*,*,#81,.F.);
#81 = EDGE_CURVE('',#82,#84,#86,.T.);
#82 = VERTEX_POINT('',#83);
#83 = CARTESIAN_POINT('',(673.87889182459,0.,-336.9394459122));
#84 = VERTEX_POINT('',#85);
#85 = CARTESIAN_POINT('',(703.17797407783,0.,-336.9394459122));
#86 = B_SPLINE_CURVE_WITH_KNOTS('',1,(#87,#88),.UNSPECIFIED.,.F.,.F.,(2,
    2),(0.,20.),.PIECEWISE_BEZIER_KNOTS.);
#87 = CARTESIAN_POINT('',(673.87889182459,0.,-336.9394459122));
#88 = CARTESIAN_POINT('',(703.17797407783,0.,-336.9394459122));
#89 = ORIENTED_EDGE('',*,*,#90,.F.);
#90 = EDGE_CURVE('',#91,#82,#93,.T.);
#91 = VERTEX_POINT('',#92);
#92 = CARTESIAN_POINT('',(673.87889182459,0.,336.93944591229));
#93 = B_SPLINE_CURVE_WITH_KNOTS('',1,(#94,#95),.UNSPECIFIED.,.F.,.F.,(2,
    2),(0.,460.),.PIECEWISE_BEZIER_KNOTS.);
#94 = CARTESIAN_POINT('',(673.87889182459,0.,336.93944591229));
#95 = CARTESIAN_POINT('',(673.87889182459,0.,-336.9394459122));
#96 = ORIENTED_EDGE('',*,*,#97,.F.);
#97 = EDGE_CURVE('',#98,#91,#100,.T.);
#98 = VERTEX_POINT('',#99);
#99 = CARTESIAN_POINT('',(703.17797407783,0.,336.93944591229));
#100 = B_SPLINE_CURVE_WITH_KNOTS('',1,(#101,#102),.UNSPECIFIED.,.F.,.F.,
  (2,2),(-20.,-0.),.PIECEWISE_BEZIER_KNOTS.);
#101 = CARTESIAN_POINT('',(703.17797407783,0.,336.93944591229));
#102 = CARTESIAN_POINT('',(673.87889182459,0.,336.93944591229));
#103 = ORIENTED_EDGE('',*,*,#104,.F.);
#104 = EDGE_CURVE('',#84,#98,#105,.T.);
#105 = B_SPLINE_CURVE_WITH_KNOTS('',1,(#106,#107),.UNSPECIFIED.,.F.,.F.,
  (2,2),(-460.,0.),.PIECEWISE_BEZIER_KNOTS.);
#106 = CARTESIAN_POINT('',(703.17797407783,0.,-336.9394459122));
#107 = CARTESIAN_POINT('',(703.17797407783,0.,336.93944591229));
#108 = B_SPLINE_SURFACE_WITH_KNOTS('',1,1,(
    (#109,#110)
    ,(#111,#112
    )),.UNSPECIFIED.,.F.,.F.,.F.,(2,2),(2,2),(-300.,300.),(-550.,550.),
  .PIECEWISE_BEZIER_KNOTS.);
#109 = CARTESIAN_POINT('',(-805.7247619641,0.,439.48623379864));
#110 = CARTESIAN_POINT('',(805.72476196418,0.,439.48623379864));
#111 = CARTESIAN_POINT('',(-805.7247619641,0.,-439.4862337986));
#112 = CARTESIAN_POINT('',(805.72476196418,0.,-439.4862337986));
#113 = ADVANCED_FACE('',(#114),#136,.F.);
#114 = FACE_BOUND('',#115,.T.);
#115 = EDGE_LOOP('',(#116,#117,#124,#131));
#116 = ORIENTED_EDGE('',*,*,#21,.T.);
#117 = ORIENTED_EDGE('',*,*,#118,.F.);
#118 = EDGE_CURVE('',#119,#24,#121,.T.);
#119 = VERTEX_POINT('',#120);
#120 = CARTESIAN_POINT('',(805.72476196418,29.299082253243,
    -439.4862337986));
#121 = B_SPLINE_CURVE_WITH_KNOTS('',1,(#122,#123),.UNSPECIFIED.,.F.,.F.,
  (2,2),(-0.,20.),.PIECEWISE_BEZIER_KNOTS.);
#122 = CARTESIAN_POINT('',(805.72476196418,29.299082253243,
    -439.4862337986));
#123 = CARTESIAN_POINT('',(805.72476196418,0.,-439.4862337986));
#124 = ORIENTED_EDGE('',*,*,#125,.F.);
#125 = EDGE_CURVE('',#126,#119,#128,.T.);
#126 = VERTEX_POINT('',#127);
#127 = CARTESIAN_POINT('',(805.72476196418,29.299082253243,
    439.48623379864));
#128 = B_SPLINE_CURVE_WITH_KNOTS('',1,(#129,#130),.UNSPECIFIED.,.F.,.F.,
  (2,2),(0.,600.),.PIECEWISE_BEZIER_KNOTS.);
#129 = CARTESIAN_POINT('',(805.72476196418,29.299082253243,
    439.48623379864));
#130 = CARTESIAN_POINT('',(805.72476196418,29.299082253243,
    -439.4862337986));
#131 = ORIENTED_EDGE('',*,*,#132,.T.);
#132 = EDGE_CURVE('',#126,#22,#133,.T.);
#133 = B_SPLINE_CURVE_WITH_KNOTS('',1,(#134,#135),.UNSPECIFIED.,.F.,.F.,
  (2,2),(-0.,20.),.PIECEWISE_BEZIER_KNOTS.);
#134 = CARTESIAN_POINT('',(805.72476196418,29.299082253243,
    439.48623379864));
#135 = CARTESIAN_POINT('',(805.72476196418,0.,439.48623379864));
#136 = B_SPLINE_SURFACE_WITH_KNOTS('',1,1,(
    (#137,#138)
    ,(#139,#140
    )),.UNSPECIFIED.,.F.,.F.,.F.,(2,2),(2,2),(-600.,0.),(-20.,0.),
  .PIECEWISE_BEZIER_KNOTS.);
#137 = CARTESIAN_POINT('',(805.72476196418,0.,-439.4862337986));
#138 = CARTESIAN_POINT('',(805.72476196418,29.299082253243,
    -439.4862337986));
#139 = CARTESIAN_POINT('',(805.72476196418,0.,439.48623379864));
#140 = CARTESIAN_POINT('',(805.72476196418,29.299082253243,
    439.48623379864));
#141 = ADVANCED_FACE('',(#142),#158,.F.);
#142 = FACE_BOUND('',#143,.T.);
#143 = EDGE_LOOP('',(#144,#145,#152,#157));
#144 = ORIENTED_EDGE('',*,*,#44,.T.);
#145 = ORIENTED_EDGE('',*,*,#146,.F.);
#146 = EDGE_CURVE('',#147,#38,#149,.T.);
#147 = VERTEX_POINT('',#148);
#148 = CARTESIAN_POINT('',(-805.7247619641,29.299082253243,
    -439.4862337986));
#149 = B_SPLINE_CURVE_WITH_KNOTS('',1,(#150,#151),.UNSPECIFIED.,.F.,.F.,
  (2,2),(-0.,20.),.PIECEWISE_BEZIER_KNOTS.);
#150 = CARTESIAN_POINT('',(-805.7247619641,29.299082253243,
    -439.4862337986));
#151 = CARTESIAN_POINT('',(-805.7247619641,0.,-439.4862337986));
#152 = ORIENTED_EDGE('',*,*,#153,.F.);
#153 = EDGE_CURVE('',#119,#147,#154,.T.);
#154 = B_SPLINE_CURVE_WITH_KNOTS('',1,(#155,#156),.UNSPECIFIED.,.F.,.F.,
  (2,2),(-1.1E+03,-0.),.PIECEWISE_BEZIER_KNOTS.);
#155 = CARTESIAN_POINT('',(805.72476196418,29.299082253243,
    -439.4862337986));
#156 = CARTESIAN_POINT('',(-805.7247619641,29.299082253243,
    -439.4862337986));
#157 = ORIENTED_EDGE('',*,*,#118,.T.);
#158 = B_SPLINE_SURFACE_WITH_KNOTS('',1,1,(
    (#159,#160)
    ,(#161,#162
    )),.UNSPECIFIED.,.F.,.F.,.F.,(2,2),(2,2),(0.,1.1E+03),(-20.,0.),
  .PIECEWISE_BEZIER_KNOTS.);
#159 = CARTESIAN_POINT('',(-805.7247619641,0.,-439.4862337986));
#160 = CARTESIAN_POINT('',(-805.7247619641,29.299082253243,
    -439.4862337986));
#161 = CARTESIAN_POINT('',(805.72476196418,0.,-439.4862337986));
#162 = CARTESIAN_POINT('',(805.72476196418,29.299082253243,
    -439.4862337986));
#163 = ADVANCED_FACE('',(#164),#180,.F.);
#164 = FACE_BOUND('',#165,.T.);
#165 = EDGE_LOOP('',(#166,#167,#174,#179));
#166 = ORIENTED_EDGE('',*,*,#37,.T.);
#167 = ORIENTED_EDGE('',*,*,#168,.F.);
#168 = EDGE_CURVE('',#169,#31,#171,.T.);
#169 = VERTEX_POINT('',#170);
#170 = CARTESIAN_POINT('',(-805.7247619641,29.299082253243,
    439.48623379864));
#171 = B_SPLINE_CURVE_WITH_KNOTS('',1,(#172,#173),.UNSPECIFIED.,.F.,.F.,
  (2,2),(-0.,20.),.PIECEWISE_BEZIER_KNOTS.);
#172 = CARTESIAN_POINT('',(-805.7247619641,29.299082253243,
    439.48623379864));
#173 = CARTESIAN_POINT('',(-805.7247619641,0.,439.48623379864));
#174 = ORIENTED_EDGE('',*,*,#175,.F.);
#175 = EDGE_CURVE('',#147,#169,#176,.T.);
#176 = B_SPLINE_CURVE_WITH_KNOTS('',1,(#177,#178),.UNSPECIFIED.,.F.,.F.,
  (2,2),(-600.,0.),.PIECEWISE_BEZIER_KNOTS.);
#177 = CARTESIAN_POINT('',(-805.7247619641,29.299082253243,
    -439.4862337986));
#178 = CARTESIAN_POINT('',(-805.7247619641,29.299082253243,
    439.48623379864));
#179 = ORIENTED_EDGE('',*,*,#146,.T.);
#180 = B_SPLINE_SURFACE_WITH_KNOTS('',1,1,(
    (#181,#182)
    ,(#183,#184
    )),.UNSPECIFIED.,.F.,.F.,.F.,(2,2),(2,2),(0.,600.),(-20.,0.),
  .PIECEWISE_BEZIER_KNOTS.);
#181 = CARTESIAN_POINT('',(-805.7247619641,0.,439.48623379864));
#182 = CARTESIAN_POINT('',(-805.7247619641,29.299082253243,
    439.48623379864));
#183 = CARTESIAN_POINT('',(-805.7247619641,0.,-439.4862337986));
#184 = CARTESIAN_POINT('',(-805.7247619641,29.299082253243,
    -439.4862337986));
#185 = ADVANCED_FACE('',(#186),#196,.F.);
#186 = FACE_BOUND('',#187,.T.);
#187 = EDGE_LOOP('',(#188,#189,#190,#195));
#188 = ORIENTED_EDGE('',*,*,#30,.T.);
#189 = ORIENTED_EDGE('',*,*,#132,.F.);
#190 = ORIENTED_EDGE('',*,*,#191,.F.);
#191 = EDGE_CURVE('',#169,#126,#192,.T.);
#192 = B_SPLINE_CURVE_WITH_KNOTS('',1,(#193,#194),.UNSPECIFIED.,.F.,.F.,
  (2,2),(0.,1.1E+03),.PIECEWISE_BEZIER_KNOTS.);
#193 = CARTESIAN_POINT('',(-805.7247619641,29.299082253243,
    439.48623379864));
#194 = CARTESIAN_POINT('',(805.72476196418,29.299082253243,
    439.48623379864));
#195 = ORIENTED_EDGE('',*,*,#168,.T.);
#196 = B_SPLINE_SURFACE_WITH_KNOTS('',1,1,(
    (#197,#198)
    ,(#199,#200
    )),.UNSPECIFIED.,.F.,.F.,.F.,(2,2),(2,2),(-1.1E+03,0.),(-20.,0.),
  .PIECEWISE_BEZIER_KNOTS.);
#197 = CARTESIAN_POINT('',(805.72476196418,0.,439.48623379864));
#198 = CARTESIAN_POINT('',(805.72476196418,29.299082253243,
    439.48623379864));
#199 = CARTESIAN_POINT('',(-805.7247619641,0.,439.48623379864));
#200 = CARTESIAN_POINT('',(-805.7247619641,29.299082253243,
    439.48623379864));
#201 = ADVANCED_FACE('',(#202),#208,.F.);
#202 = FACE_BOUND('',#203,.T.);
#203 = EDGE_LOOP('',(#204,#205,#206,#207));
#204 = ORIENTED_EDGE('',*,*,#125,.T.);
#205 = ORIENTED_EDGE('',*,*,#153,.T.);
#206 = ORIENTED_EDGE('',*,*,#175,.T.);
#207 = ORIENTED_EDGE('',*,*,#191,.T.);
#208 = B_SPLINE_SURFACE_WITH_KNOTS('',1,1,(
    (#209,#210)
    ,(#211,#212
    )),.UNSPECIFIED.,.F.,.F.,.F.,(2,2),(2,2),(-300.,300.),(-550.,550.),
  .PIECEWISE_BEZIER_KNOTS.);
#209 = CARTESIAN_POINT('',(-805.7247619641,29.299082253243,
    439.48623379864));
#210 = CARTESIAN_POINT('',(805.72476196418,29.299082253243,
    439.48623379864));
#211 = CARTESIAN_POINT('',(-805.7247619641,29.299082253243,
    -439.4862337986));
#212 = CARTESIAN_POINT('',(805.72476196418,29.299082253243,
    -439.4862337986));
#213 = ADVANCED_FACE('',(#214),#236,.F.);
#214 = FACE_BOUND('',#215,.T.);
#215 = EDGE_LOOP('',(#216,#217,#224,#231));
#216 = ORIENTED_EDGE('',*,*,#60,.T.);
#217 = ORIENTED_EDGE('',*,*,#218,.F.);
#218 = EDGE_CURVE('',#219,#52,#221,.T.);
#219 = VERTEX_POINT('',#220);
#220 = CARTESIAN_POINT('',(-703.1779740778,-29.29908225324,
    -336.9394459122));
#221 = B_SPLINE_CURVE_WITH_KNOTS('',1,(#222,#223),.UNSPECIFIED.,.F.,.F.,
  (2,2),(0.,20.),.PIECEWISE_BEZIER_KNOTS.);
#222 = CARTESIAN_POINT('',(-703.1779740778,-29.29908225324,
    -336.9394459122));
#223 = CARTESIAN_POINT('',(-703.1779740778,0.,-336.9394459122));
#224 = ORIENTED_EDGE('',*,*,#225,.F.);
#225 = EDGE_CURVE('',#226,#219,#228,.T.);
#226 = VERTEX_POINT('',#227);
#227 = CARTESIAN_POINT('',(-703.1779740778,-29.29908225324,
    336.93944591229));
#228 = B_SPLINE_CURVE_WITH_KNOTS('',1,(#229,#230),.UNSPECIFIED.,.F.,.F.,
  (2,2),(0.,460.),.PIECEWISE_BEZIER_KNOTS.);
#229 = CARTESIAN_POINT('',(-703.1779740778,-29.29908225324,
    336.93944591229));
#230 = CARTESIAN_POINT('',(-703.1779740778,-29.29908225324,
    -336.9394459122));
#231 = ORIENTED_EDGE('',*,*,#232,.T.);
#232 = EDGE_CURVE('',#226,#61,#233,.T.);
#233 = B_SPLINE_CURVE_WITH_KNOTS('',1,(#234,#235),.UNSPECIFIED.,.F.,.F.,
  (2,2),(0.,20.),.PIECEWISE_BEZIER_KNOTS.);
#234 = CARTESIAN_POINT('',(-703.1779740778,-29.29908225324,
    336.93944591229));
#235 = CARTESIAN_POINT('',(-703.1779740778,0.,336.93944591229));
#236 = B_SPLINE_SURFACE_WITH_KNOTS('',1,1,(
    (#237,#238)
    ,(#239,#240
    )),.UNSPECIFIED.,.F.,.F.,.F.,(2,2),(2,2),(0.,460.),(0.,20.),
  .PIECEWISE_BEZIER_KNOTS.);
#237 = CARTESIAN_POINT('',(-703.1779740778,-29.29908225324,
    336.93944591229));
#238 = CARTESIAN_POINT('',(-703.1779740778,0.,336.93944591229));
#239 = CARTESIAN_POINT('',(-703.1779740778,-29.29908225324,
    -336.9394459122));
#240 = CARTESIAN_POINT('',(-703.1779740778,0.,-336.9394459122));
#241 = ADVANCED_FACE('',(#242),#258,.F.);
#242 = FACE_BOUND('',#243,.T.);
#243 = EDGE_LOOP('',(#244,#245,#252,#257));
#244 = ORIENTED_EDGE('',*,*,#51,.T.);
#245 = ORIENTED_EDGE('',*,*,#246,.F.);
#246 = EDGE_CURVE('',#247,#54,#249,.T.);
#247 = VERTEX_POINT('',#248);
#248 = CARTESIAN_POINT('',(-673.8788918245,-29.29908225324,
    -336.9394459122));
#249 = B_SPLINE_CURVE_WITH_KNOTS('',1,(#250,#251),.UNSPECIFIED.,.F.,.F.,
  (2,2),(0.,20.),.PIECEWISE_BEZIER_KNOTS.);
#250 = CARTESIAN_POINT('',(-673.8788918245,-29.29908225324,
    -336.9394459122));
#251 = CARTESIAN_POINT('',(-673.8788918245,0.,-336.9394459122));
#252 = ORIENTED_EDGE('',*,*,#253,.F.);
#253 = EDGE_CURVE('',#219,#247,#254,.T.);
#254 = B_SPLINE_CURVE_WITH_KNOTS('',1,(#255,#256),.UNSPECIFIED.,.F.,.F.,
  (2,2),(0.,20.),.PIECEWISE_BEZIER_KNOTS.);
#255 = CARTESIAN_POINT('',(-703.1779740778,-29.29908225324,
    -336.9394459122));
#256 = CARTESIAN_POINT('',(-673.8788918245,-29.29908225324,
    -336.9394459122));
#257 = ORIENTED_EDGE('',*,*,#218,.T.);
#258 = B_SPLINE_SURFACE_WITH_KNOTS('',1,1,(
    (#259,#260)
    ,(#261,#262
    )),.UNSPECIFIED.,.F.,.F.,.F.,(2,2),(2,2),(0.,20.),(0.,20.),
  .PIECEWISE_BEZIER_KNOTS.);
#259 = CARTESIAN_POINT('',(-703.1779740778,-29.29908225324,
    -336.9394459122));
#260 = CARTESIAN_POINT('',(-703.1779740778,0.,-336.9394459122));
#261 = CARTESIAN_POINT('',(-673.8788918245,-29.29908225324,
    -336.9394459122));
#262 = CARTESIAN_POINT('',(-673.8788918245,0.,-336.9394459122));
#263 = ADVANCED_FACE('',(#264),#280,.F.);
#264 = FACE_BOUND('',#265,.T.);
#265 = EDGE_LOOP('',(#266,#267,#274,#279));
#266 = ORIENTED_EDGE('',*,*,#74,.T.);
#267 = ORIENTED_EDGE('',*,*,#268,.F.);
#268 = EDGE_CURVE('',#269,#68,#271,.T.);
#269 = VERTEX_POINT('',#270);
#270 = CARTESIAN_POINT('',(-673.8788918245,-29.29908225324,
    336.93944591229));
#271 = B_SPLINE_CURVE_WITH_KNOTS('',1,(#272,#273),.UNSPECIFIED.,.F.,.F.,
  (2,2),(0.,20.),.PIECEWISE_BEZIER_KNOTS.);
#272 = CARTESIAN_POINT('',(-673.8788918245,-29.29908225324,
    336.93944591229));
#273 = CARTESIAN_POINT('',(-673.8788918245,0.,336.93944591229));
#274 = ORIENTED_EDGE('',*,*,#275,.F.);
#275 = EDGE_CURVE('',#247,#269,#276,.T.);
#276 = B_SPLINE_CURVE_WITH_KNOTS('',1,(#277,#278),.UNSPECIFIED.,.F.,.F.,
  (2,2),(-460.,0.),.PIECEWISE_BEZIER_KNOTS.);
#277 = CARTESIAN_POINT('',(-673.8788918245,-29.29908225324,
    -336.9394459122));
#278 = CARTESIAN_POINT('',(-673.8788918245,-29.29908225324,
    336.93944591229));
#279 = ORIENTED_EDGE('',*,*,#246,.T.);
#280 = B_SPLINE_SURFACE_WITH_KNOTS('',1,1,(
    (#281,#282)
    ,(#283,#284
    )),.UNSPECIFIED.,.F.,.F.,.F.,(2,2),(2,2),(-460.,0.),(0.,20.),
  .PIECEWISE_BEZIER_KNOTS.);
#281 = CARTESIAN_POINT('',(-673.8788918245,-29.29908225324,
    -336.9394459122));
#282 = CARTESIAN_POINT('',(-673.8788918245,0.,-336.9394459122));
#283 = CARTESIAN_POINT('',(-673.8788918245,-29.29908225324,
    336.93944591229));
#284 = CARTESIAN_POINT('',(-673.8788918245,0.,336.93944591229));
#285 = ADVANCED_FACE('',(#286),#296,.F.);
#286 = FACE_BOUND('',#287,.T.);
#287 = EDGE_LOOP('',(#288,#289,#290,#295));
#288 = ORIENTED_EDGE('',*,*,#67,.T.);
#289 = ORIENTED_EDGE('',*,*,#232,.F.);
#290 = ORIENTED_EDGE('',*,*,#291,.F.);
#291 = EDGE_CURVE('',#269,#226,#292,.T.);
#292 = B_SPLINE_CURVE_WITH_KNOTS('',1,(#293,#294),.UNSPECIFIED.,.F.,.F.,
  (2,2),(-20.,-0.),.PIECEWISE_BEZIER_KNOTS.);
#293 = CARTESIAN_POINT('',(-673.8788918245,-29.29908225324,
    336.93944591229));
#294 = CARTESIAN_POINT('',(-703.1779740778,-29.29908225324,
    336.93944591229));
#295 = ORIENTED_EDGE('',*,*,#268,.T.);
#296 = B_SPLINE_SURFACE_WITH_KNOTS('',1,1,(
    (#297,#298)
    ,(#299,#300
    )),.UNSPECIFIED.,.F.,.F.,.F.,(2,2),(2,2),(-20.,0.),(0.,20.),
  .PIECEWISE_BEZIER_KNOTS.);
#297 = CARTESIAN_POINT('',(-673.8788918245,-29.29908225324,
    336.93944591229));
#298 = CARTESIAN_POINT('',(-673.8788918245,0.,336.93944591229));
#299 = CARTESIAN_POINT('',(-703.1779740778,-29.29908225324,
    336.93944591229));
#300 = CARTESIAN_POINT('',(-703.1779740778,0.,336.93944591229));
#301 = ADVANCED_FACE('',(#302),#308,.T.);
#302 = FACE_BOUND('',#303,.T.);
#303 = EDGE_LOOP('',(#304,#305,#306,#307));
#304 = ORIENTED_EDGE('',*,*,#225,.T.);
#305 = ORIENTED_EDGE('',*,*,#253,.T.);
#306 = ORIENTED_EDGE('',*,*,#275,.T.);
#307 = ORIENTED_EDGE('',*,*,#291,.T.);
#308 = B_SPLINE_SURFACE_WITH_KNOTS('',1,1,(
    (#309,#310)
    ,(#311,#312
    )),.UNSPECIFIED.,.F.,.F.,.F.,(2,2),(2,2),(-230.,230.),(-480.,-460.),
  .PIECEWISE_BEZIER_KNOTS.);
#309 = CARTESIAN_POINT('',(-703.1779740778,-29.29908225324,
    336.93944591229));
#310 = CARTESIAN_POINT('',(-673.8788918245,-29.29908225324,
    336.93944591229));
#311 = CARTESIAN_POINT('',(-703.1779740778,-29.29908225324,
    -336.9394459122));
#312 = CARTESIAN_POINT('',(-673.8788918245,-29.29908225324,
    -336.9394459122));
#313 = ADVANCED_FACE('',(#314),#336,.F.);
#314 = FACE_BOUND('',#315,.T.);
#315 = EDGE_LOOP('',(#316,#317,#324,#331));
#316 = ORIENTED_EDGE('',*,*,#90,.T.);
#317 = ORIENTED_EDGE('',*,*,#318,.F.);
#318 = EDGE_CURVE('',#319,#82,#321,.T.);
#319 = VERTEX_POINT('',#320);
#320 = CARTESIAN_POINT('',(673.87889182459,-29.29908225324,
    -336.9394459122));
#321 = B_SPLINE_CURVE_WITH_KNOTS('',1,(#322,#323),.UNSPECIFIED.,.F.,.F.,
  (2,2),(0.,20.),.PIECEWISE_BEZIER_KNOTS.);
#322 = CARTESIAN_POINT('',(673.87889182459,-29.29908225324,
    -336.9394459122));
#323 = CARTESIAN_POINT('',(673.87889182459,0.,-336.9394459122));
#324 = ORIENTED_EDGE('',*,*,#325,.F.);
#325 = EDGE_CURVE('',#326,#319,#328,.T.);
#326 = VERTEX_POINT('',#327);
#327 = CARTESIAN_POINT('',(673.87889182459,-29.29908225324,
    336.93944591229));
#328 = B_SPLINE_CURVE_WITH_KNOTS('',1,(#329,#330),.UNSPECIFIED.,.F.,.F.,
  (2,2),(0.,460.),.PIECEWISE_BEZIER_KNOTS.);
#329 = CARTESIAN_POINT('',(673.87889182459,-29.29908225324,
    336.93944591229));
#330 = CARTESIAN_POINT('',(673.87889182459,-29.29908225324,
    -336.9394459122));
#331 = ORIENTED_EDGE('',*,*,#332,.T.);
#332 = EDGE_CURVE('',#326,#91,#333,.T.);
#333 = B_SPLINE_CURVE_WITH_KNOTS('',1,(#334,#335),.UNSPECIFIED.,.F.,.F.,
  (2,2),(0.,20.),.PIECEWISE_BEZIER_KNOTS.);
#334 = CARTESIAN_POINT('',(673.87889182459,-29.29908225324,
    336.93944591229));
#335 = CARTESIAN_POINT('',(673.87889182459,0.,336.93944591229));
#336 = B_SPLINE_SURFACE_WITH_KNOTS('',1,1,(
    (#337,#338)
    ,(#339,#340
    )),.UNSPECIFIED.,.F.,.F.,.F.,(2,2),(2,2),(0.,460.),(0.,20.),
  .PIECEWISE_BEZIER_KNOTS.);
#337 = CARTESIAN_POINT('',(673.87889182459,-29.29908225324,
    336.93944591229));
#338 = CARTESIAN_POINT('',(673.87889182459,0.,336.93944591229));
#339 = CARTESIAN_POINT('',(673.87889182459,-29.29908225324,
    -336.9394459122));
#340 = CARTESIAN_POINT('',(673.87889182459,0.,-336.9394459122));
#341 = ADVANCED_FACE('',(#342),#358,.F.);
#342 = FACE_BOUND('',#343,.T.);
#343 = EDGE_LOOP('',(#344,#345,#352,#357));
#344 = ORIENTED_EDGE('',*,*,#81,.T.);
#345 = ORIENTED_EDGE('',*,*,#346,.F.);
#346 = EDGE_CURVE('',#347,#84,#349,.T.);
#347 = VERTEX_POINT('',#348);
#348 = CARTESIAN_POINT('',(703.17797407783,-29.29908225324,
    -336.9394459122));
#349 = B_SPLINE_CURVE_WITH_KNOTS('',1,(#350,#351),.UNSPECIFIED.,.F.,.F.,
  (2,2),(0.,20.),.PIECEWISE_BEZIER_KNOTS.);
#350 = CARTESIAN_POINT('',(703.17797407783,-29.29908225324,
    -336.9394459122));
#351 = CARTESIAN_POINT('',(703.17797407783,0.,-336.9394459122));
#352 = ORIENTED_EDGE('',*,*,#353,.F.);
#353 = EDGE_CURVE('',#319,#347,#354,.T.);
#354 = B_SPLINE_CURVE_WITH_KNOTS('',1,(#355,#356),.UNSPECIFIED.,.F.,.F.,
  (2,2),(0.,20.),.PIECEWISE_BEZIER_KNOTS.);
#355 = CARTESIAN_POINT('',(673.87889182459,-29.29908225324,
    -336.9394459122));
#356 = CARTESIAN_POINT('',(703.17797407783,-29.29908225324,
    -336.9394459122));
#357 = ORIENTED_EDGE('',*,*,#318,.T.);
#358 = B_SPLINE_SURFACE_WITH_KNOTS('',1,1,(
    (#359,#360)
    ,(#361,#362
    )),.UNSPECIFIED.,.F.,.F.,.F.,(2,2),(2,2),(0.,20.),(0.,20.),
  .PIECEWISE_BEZIER_KNOTS.);
#359 = CARTESIAN_POINT('',(673.87889182459,-29.29908225324,
    -336.9394459122));
#360 = CARTESIAN_POINT('',(673.87889182459,0.,-336.9394459122));
#361 = CARTESIAN_POINT('',(703.17797407783,-29.29908225324,
    -336.9394459122));
#362 = CARTESIAN_POINT('',(703.17797407783,0.,-336.9394459122));
#363 = ADVANCED_FACE('',(#364),#380,.F.);
#364 = FACE_BOUND('',#365,.T.);
#365 = EDGE_LOOP('',(#366,#367,#374,#379));
#366 = ORIENTED_EDGE('',*,*,#104,.T.);
#367 = ORIENTED_EDGE('',*,*,#368,.F.);
#368 = EDGE_CURVE('',#369,#98,#371,.T.);
#369 = VERTEX_POINT('',#370);
#370 = CARTESIAN_POINT('',(703.17797407783,-29.29908225324,
    336.93944591229));
#371 = B_SPLINE_CURVE_WITH_KNOTS('',1,(#372,#373),.UNSPECIFIED.,.F.,.F.,
  (2,2),(0.,20.),.PIECEWISE_BEZIER_KNOTS.);
#372 = CARTESIAN_POINT('',(703.17797407783,-29.29908225324,
    336.93944591229));
#373 = CARTESIAN_POINT('',(703.17797407783,0.,336.93944591229));
#374 = ORIENTED_EDGE('',*,*,#375,.F.);
#375 = EDGE_CURVE('',#347,#369,#376,.T.);
#376 = B_SPLINE_CURVE_WITH_KNOTS('',1,(#377,#378),.UNSPECIFIED.,.F.,.F.,
  (2,2),(-460.,0.),.PIECEWISE_BEZIER_KNOTS.);
#377 = CARTESIAN_POINT('',(703.17797407783,-29.29908225324,
    -336.9394459122));
#378 = CARTESIAN_POINT('',(703.17797407783,-29.29908225324,
    336.93944591229));
#379 = ORIENTED_EDGE('',*,*,#346,.T.);
#380 = B_SPLINE_SURFACE_WITH_KNOTS('',1,1,(
    (#381,#382)
    ,(#383,#384
    )),.UNSPECIFIED.,.F.,.F.,.F.,(2,2),(2,2),(-460.,0.),(0.,20.),
  .PIECEWISE_BEZIER_KNOTS.);
#381 = CARTESIAN_POINT('',(703.17797407783,-29.29908225324,
    -336.9394459122));
#382 = CARTESIAN_POINT('',(703.17797407783,0.,-336.9394459122));
#383 = CARTESIAN_POINT('',(703.17797407783,-29.29908225324,
    336.93944591229));
#384 = CARTESIAN_POINT('',(703.17797407783,0.,336.93944591229));
#385 = ADVANCED_FACE('',(#386),#396,.F.);
#386 = FACE_BOUND('',#387,.T.);
#387 = EDGE_LOOP('',(#388,#389,#390,#395));
#388 = ORIENTED_EDGE('',*,*,#97,.T.);
#389 = ORIENTED_EDGE('',*,*,#332,.F.);
#390 = ORIENTED_EDGE('',*,*,#391,.F.);
#391 = EDGE_CURVE('',#369,#326,#392,.T.);
#392 = B_SPLINE_CURVE_WITH_KNOTS('',1,(#393,#394),.UNSPECIFIED.,.F.,.F.,
  (2,2),(-20.,-0.),.PIECEWISE_BEZIER_KNOTS.);
#393 = CARTESIAN_POINT('',(703.17797407783,-29.29908225324,
    336.93944591229));
#394 = CARTESIAN_POINT('',(673.87889182459,-29.29908225324,
    336.93944591229));
#395 = ORIENTED_EDGE('',*,*,#368,.T.);
#396 = B_SPLINE_SURFACE_WITH_KNOTS('',1,1,(
    (#397,#398)
    ,(#399,#400
    )),.UNSPECIFIED.,.F.,.F.,.F.,(2,2),(2,2),(-20.,0.),(0.,20.),
  .PIECEWISE_BEZIER_KNOTS.);
#397 = CARTESIAN_POINT('',(703.17797407783,-29.29908225324,
    336.93944591229));
#398 = CARTESIAN_POINT('',(703.17797407783,0.,336.93944591229));
#399 = CARTESIAN_POINT('',(673.87889182459,-29.29908225324,
    336.93944591229));
#400 = CARTESIAN_POINT('',(673.87889182459,0.,336.93944591229));
#401 = ADVANCED_FACE('',(#402),#408,.T.);
#402 = FACE_BOUND('',#403,.T.);
#403 = EDGE_LOOP('',(#404,#405,#406,#407));
#404 = ORIENTED_EDGE('',*,*,#325,.T.);
#405 = ORIENTED_EDGE('',*,*,#353,.T.);
#406 = ORIENTED_EDGE('',*,*,#375,.T.);
#407 = ORIENTED_EDGE('',*,*,#391,.T.);
#408 = B_SPLINE_SURFACE_WITH_KNOTS('',1,1,(
    (#409,#410)
    ,(#411,#412
    )),.UNSPECIFIED.,.F.,.F.,.F.,(2,2),(2,2),(-230.,230.),(460.,480.),
  .PIECEWISE_BEZIER_KNOTS.);
#409 = CARTESIAN_POINT('',(673.87889182459,-29.29908225324,
    336.93944591229));
#410 = CARTESIAN_POINT('',(703.17797407783,-29.29908225324,
    336.93944591229));
#411 = CARTESIAN_POINT('',(673.87889182459,-29.29908225324,
    -336.9394459122));
#412 = CARTESIAN_POINT('',(703.17797407783,-29.29908225324,
    -336.9394459122));
#413 = ( GEOMETRIC_REPRESENTATION_CONTEXT(3) 
GLOBAL_UNCERTAINTY_ASSIGNED_CONTEXT((#417)) GLOBAL_UNIT_ASSIGNED_CONTEXT
((#414,#415,#416)) REPRESENTATION_CONTEXT('Context #1',
  '3D Context with UNIT and UNCERTAINTY') );
#414 = ( LENGTH_UNIT() NAMED_UNIT(*) SI_UNIT(.MILLI.,.METRE.) );
#415 = ( NAMED_UNIT(*) PLANE_ANGLE_UNIT() SI_UNIT($,.RADIAN.) );
#416 = ( NAMED_UNIT(*) SI_UNIT($,.STERADIAN.) SOLID_ANGLE_UNIT() );
#417 = UNCERTAINTY_MEASURE_WITH_UNIT(LENGTH_MEASURE(2.E-07),#414,
  'distance_accuracy_value','confusion accuracy');
#418 = PRODUCT_RELATED_PRODUCT_CATEGORY('part',$,(#7));
ENDSEC;
END-ISO-10303-21;
