ISO-10303-21;
HEADER;
FILE_DESCRIPTION(('FreeCAD Model'),'2;1');
FILE_NAME('Open CASCADE Shape Model','2025-05-03T12:06:44',('FreeCAD'),(
    'FreeCAD'),'Open CASCADE STEP processor 7.6','FreeCAD','Unknown');
FILE_SCHEMA(('AUTOMOTIVE_DESIGN { 1 0 10303 214 1 1 1 1 }'));
ENDSEC;
DATA;
#1 = APPLICATION_PROTOCOL_DEFINITION('international standard',
  'automotive_design',2000,#2);
#2 = APPLICATION_CONTEXT(
  'core data for automotive mechanical design processes');
#3 = SHAPE_DEFINITION_REPRESENTATION(#4,#10);
#4 = PRODUCT_DEFINITION_SHAPE('','',#5);
#5 = PRODUCT_DEFINITION('design','',#6,#9);
#6 = PRODUCT_DEFINITION_FORMATION('','',#7);
#7 = PRODUCT('Open CASCADE STEP translator 7.6 1',
  'Open CASCADE STEP translator 7.6 1','',(#8));
#8 = PRODUCT_CONTEXT('',#2,'mechanical');
#9 = PRODUCT_DEFINITION_CONTEXT('part definition',#2,'design');
#10 = ADVANCED_BREP_SHAPE_REPRESENTATION('',(#11,#15),#233);
#11 = AXIS2_PLACEMENT_3D('',#12,#13,#14);
#12 = CARTESIAN_POINT('',(0.,0.,0.));
#13 = DIRECTION('',(0.,0.,1.));
#14 = DIRECTION('',(1.,0.,-0.));
#15 = MANIFOLD_SOLID_BREP('',#16);
#16 = CLOSED_SHELL('',(#17,#74,#207,#221));
#17 = ADVANCED_FACE('',(#18),#69,.F.);
#18 = FACE_BOUND('',#19,.F.);
#19 = EDGE_LOOP('',(#20,#64));
#20 = ORIENTED_EDGE('',*,*,#21,.F.);
#21 = EDGE_CURVE('',#22,#24,#26,.T.);
#22 = VERTEX_POINT('',#23);
#23 = CARTESIAN_POINT('',(182.25722562215,1.937287154468,329.60291091969
    ));
#24 = VERTEX_POINT('',#25);
#25 = CARTESIAN_POINT('',(182.25722562215,-1.937287154468,
    329.60291091969));
#26 = B_SPLINE_CURVE_WITH_KNOTS('',3,(#27,#28,#29,#30,#31,#32,#33,#34,
    #35,#36,#37,#38,#39,#40,#41,#42,#43,#44,#45,#46,#47,#48,#49,#50,#51,
    #52,#53,#54,#55,#56,#57,#58,#59,#60,#61,#62,#63),.UNSPECIFIED.,.F.,
  .F.,(4,1,1,1,1,1,1,1,1,1,1,1,1,1,1,1,3,1,1,1,1,1,1,1,1,1,1,1,1,1,1,1,4
    ),(0.,1.105442176871E-02,3.231292517007E-02,5.357142857143E-02,
    7.482993197279E-02,9.608843537415E-02,0.159863945578,0.18112244898,
    0.213010204082,0.234268707483,0.276785714286,0.298044217687,
    0.372448979592,0.393707482993,0.436224489796,0.457482993197,0.5,
    0.542517006803,0.563775510204,0.606292517007,0.627551020408,
    0.701955782313,0.723214285714,0.765731292517,0.786989795918,
    0.81887755102,0.840136054422,0.903911564626,0.925170068027,
    0.946428571429,0.96768707483,0.988945578231,1.),.UNSPECIFIED.);
#27 = CARTESIAN_POINT('',(182.25722562215,1.937287154468,329.60291091969
    ));
#28 = CARTESIAN_POINT('',(179.57089463226,2.223136112412,329.60291091969
    ));
#29 = CARTESIAN_POINT('',(171.8053457202,3.029296214902,329.60291091969)
  );
#30 = CARTESIAN_POINT('',(159.35154477117,4.23674530387,329.60291091969)
  );
#31 = CARTESIAN_POINT('',(145.18452252756,5.4957016963,329.60291091969)
  );
#32 = CARTESIAN_POINT('',(131.67643155109,6.590146987545,329.60291091969
    ));
#33 = CARTESIAN_POINT('',(110.26116536888,8.151761125727,329.60291091969
    ));
#34 = CARTESIAN_POINT('',(91.042336743834,9.197876222283,329.60291091969
    ));
#35 = CARTESIAN_POINT('',(72.317706569137,9.780035548236,329.60291091969
    ));
#36 = CARTESIAN_POINT('',(61.362974252855,9.92563447229,329.60291091969)
  );
#37 = CARTESIAN_POINT('',(48.513814543532,9.832517420457,329.60291091969
    ));
#38 = CARTESIAN_POINT('',(38.410201780646,9.461410528478,329.60291091969
    ));
#39 = CARTESIAN_POINT('',(24.133357659177,8.442532869662,329.60291091969
    ));
#40 = CARTESIAN_POINT('',(14.771042571828,7.095396028862,329.60291091969
    ));
#41 = CARTESIAN_POINT('',(6.91877830502,5.121878495014,329.60291091969)
  );
#42 = CARTESIAN_POINT('',(3.404478213581,3.771960455243,329.60291091969)
  );
#43 = CARTESIAN_POINT('',(0.658931267145,1.956573023524,329.60291091969)
  );
#44 = CARTESIAN_POINT('',(8.276412695077E-16,0.798815353227,
    329.60291091969));
#45 = CARTESIAN_POINT('',(1.206105020205E-30,1.629681460647E-15,
    329.60291091969));
#46 = CARTESIAN_POINT('',(-8.276412695077E-16,-0.798815353227,
    329.60291091969));
#47 = CARTESIAN_POINT('',(0.658931267145,-1.956573023524,329.60291091969
    ));
#48 = CARTESIAN_POINT('',(3.404478213581,-3.771960455243,329.60291091969
    ));
#49 = CARTESIAN_POINT('',(6.91877830502,-5.121878495014,329.60291091969)
  );
#50 = CARTESIAN_POINT('',(14.771042571828,-7.095396028862,
    329.60291091969));
#51 = CARTESIAN_POINT('',(24.133357659177,-8.442532869662,
    329.60291091969));
#52 = CARTESIAN_POINT('',(38.410201780646,-9.461410528478,
    329.60291091969));
#53 = CARTESIAN_POINT('',(48.513814543533,-9.832517420457,
    329.60291091969));
#54 = CARTESIAN_POINT('',(61.362974252855,-9.92563447229,329.60291091969
    ));
#55 = CARTESIAN_POINT('',(72.317706569137,-9.780035548236,
    329.60291091969));
#56 = CARTESIAN_POINT('',(91.042336743834,-9.197876222283,
    329.60291091969));
#57 = CARTESIAN_POINT('',(110.26116536888,-8.151761125727,
    329.60291091969));
#58 = CARTESIAN_POINT('',(131.67643155109,-6.590146987545,
    329.60291091969));
#59 = CARTESIAN_POINT('',(145.18452252756,-5.4957016963,329.60291091969)
  );
#60 = CARTESIAN_POINT('',(159.35154477117,-4.23674530387,329.60291091969
    ));
#61 = CARTESIAN_POINT('',(171.8053457202,-3.029296214902,329.60291091969
    ));
#62 = CARTESIAN_POINT('',(179.57089463226,-2.223136112412,
    329.60291091969));
#63 = CARTESIAN_POINT('',(182.25722562215,-1.937287154468,
    329.60291091969));
#64 = ORIENTED_EDGE('',*,*,#65,.T.);
#65 = EDGE_CURVE('',#22,#24,#66,.T.);
#66 = B_SPLINE_CURVE_WITH_KNOTS('',1,(#67,#68),.UNSPECIFIED.,.F.,.F.,(2,
    2),(0.,2.938819850016),.PIECEWISE_BEZIER_KNOTS.);
#67 = CARTESIAN_POINT('',(182.25722562215,1.937287154468,329.60291091969
    ));
#68 = CARTESIAN_POINT('',(182.25722562215,-1.937287154468,
    329.60291091969));
#69 = B_SPLINE_SURFACE_WITH_KNOTS('',1,1,(
    (#70,#71)
    ,(#72,#73
    )),.UNSPECIFIED.,.F.,.F.,.F.,(2,2),(2,2),(7.361667088261,
    145.60166708826),(68.953188012793,84.01014616373),
  .PIECEWISE_BEZIER_KNOTS.);
#70 = CARTESIAN_POINT('',(182.25722562215,-9.92563447229,329.60291091969
    ));
#71 = CARTESIAN_POINT('',(182.25722562215,9.92563447229,329.60291091969)
  );
#72 = CARTESIAN_POINT('',(0.,-9.92563447229,329.60291091969));
#73 = CARTESIAN_POINT('',(0.,9.92563447229,329.60291091969));
#74 = ADVANCED_FACE('',(#75),#132,.F.);
#75 = FACE_BOUND('',#76,.F.);
#76 = EDGE_LOOP('',(#77,#78,#85,#127));
#77 = ORIENTED_EDGE('',*,*,#21,.T.);
#78 = ORIENTED_EDGE('',*,*,#79,.F.);
#79 = EDGE_CURVE('',#80,#24,#82,.T.);
#80 = VERTEX_POINT('',#81);
#81 = CARTESIAN_POINT('',(182.25722562215,-1.937287154468,0.));
#82 = B_SPLINE_CURVE_WITH_KNOTS('',1,(#83,#84),.UNSPECIFIED.,.F.,.F.,(2,
    2),(0.,250.),.PIECEWISE_BEZIER_KNOTS.);
#83 = CARTESIAN_POINT('',(182.25722562215,-1.937287154468,0.));
#84 = CARTESIAN_POINT('',(182.25722562215,-1.937287154468,
    329.60291091969));
#85 = ORIENTED_EDGE('',*,*,#86,.F.);
#86 = EDGE_CURVE('',#87,#80,#89,.T.);
#87 = VERTEX_POINT('',#88);
#88 = CARTESIAN_POINT('',(182.25722562215,1.937287154468,0.));
#89 = B_SPLINE_CURVE_WITH_KNOTS('',3,(#90,#91,#92,#93,#94,#95,#96,#97,
    #98,#99,#100,#101,#102,#103,#104,#105,#106,#107,#108,#109,#110,#111,
    #112,#113,#114,#115,#116,#117,#118,#119,#120,#121,#122,#123,#124,
    #125,#126),.UNSPECIFIED.,.F.,.F.,(4,1,1,1,1,1,1,1,1,1,1,1,1,1,1,1,3,
    1,1,1,1,1,1,1,1,1,1,1,1,1,1,1,4),(0.,1.105442176871E-02,
    3.231292517007E-02,5.357142857143E-02,7.482993197279E-02,
    9.608843537415E-02,0.159863945578,0.18112244898,0.213010204082,
    0.234268707483,0.276785714286,0.298044217687,0.372448979592,
    0.393707482993,0.436224489796,0.457482993197,0.5,0.542517006803,
    0.563775510204,0.606292517007,0.627551020408,0.701955782313,
    0.723214285714,0.765731292517,0.786989795918,0.81887755102,
    0.840136054422,0.903911564626,0.925170068027,0.946428571429,
    0.96768707483,0.988945578231,1.),.UNSPECIFIED.);
#90 = CARTESIAN_POINT('',(182.25722562215,1.937287154468,0.));
#91 = CARTESIAN_POINT('',(179.57089463226,2.223136112412,0.));
#92 = CARTESIAN_POINT('',(171.8053457202,3.029296214902,0.));
#93 = CARTESIAN_POINT('',(159.35154477117,4.23674530387,0.));
#94 = CARTESIAN_POINT('',(145.18452252756,5.4957016963,0.));
#95 = CARTESIAN_POINT('',(131.67643155109,6.590146987545,0.));
#96 = CARTESIAN_POINT('',(110.26116536888,8.151761125727,0.));
#97 = CARTESIAN_POINT('',(91.042336743834,9.197876222283,0.));
#98 = CARTESIAN_POINT('',(72.317706569137,9.780035548236,0.));
#99 = CARTESIAN_POINT('',(61.362974252855,9.92563447229,0.));
#100 = CARTESIAN_POINT('',(48.513814543532,9.832517420457,0.));
#101 = CARTESIAN_POINT('',(38.410201780646,9.461410528478,0.));
#102 = CARTESIAN_POINT('',(24.133357659177,8.442532869662,0.));
#103 = CARTESIAN_POINT('',(14.771042571828,7.095396028862,0.));
#104 = CARTESIAN_POINT('',(6.91877830502,5.121878495014,0.));
#105 = CARTESIAN_POINT('',(3.404478213581,3.771960455243,0.));
#106 = CARTESIAN_POINT('',(0.658931267145,1.956573023524,0.));
#107 = CARTESIAN_POINT('',(8.276412695077E-16,0.798815353227,0.));
#108 = CARTESIAN_POINT('',(1.206105020205E-30,1.629681460647E-15,0.));
#109 = CARTESIAN_POINT('',(-8.276412695077E-16,-0.798815353227,0.));
#110 = CARTESIAN_POINT('',(0.658931267145,-1.956573023524,0.));
#111 = CARTESIAN_POINT('',(3.404478213581,-3.771960455243,0.));
#112 = CARTESIAN_POINT('',(6.91877830502,-5.121878495014,0.));
#113 = CARTESIAN_POINT('',(14.771042571828,-7.095396028862,0.));
#114 = CARTESIAN_POINT('',(24.133357659177,-8.442532869662,0.));
#115 = CARTESIAN_POINT('',(38.410201780646,-9.461410528478,0.));
#116 = CARTESIAN_POINT('',(48.513814543533,-9.832517420457,0.));
#117 = CARTESIAN_POINT('',(61.362974252855,-9.92563447229,0.));
#118 = CARTESIAN_POINT('',(72.317706569137,-9.780035548236,0.));
#119 = CARTESIAN_POINT('',(91.042336743834,-9.197876222283,0.));
#120 = CARTESIAN_POINT('',(110.26116536888,-8.151761125727,0.));
#121 = CARTESIAN_POINT('',(131.67643155109,-6.590146987545,0.));
#122 = CARTESIAN_POINT('',(145.18452252756,-5.4957016963,0.));
#123 = CARTESIAN_POINT('',(159.35154477117,-4.23674530387,0.));
#124 = CARTESIAN_POINT('',(171.8053457202,-3.029296214902,0.));
#125 = CARTESIAN_POINT('',(179.57089463226,-2.223136112412,0.));
#126 = CARTESIAN_POINT('',(182.25722562215,-1.937287154468,0.));
#127 = ORIENTED_EDGE('',*,*,#128,.T.);
#128 = EDGE_CURVE('',#87,#22,#129,.T.);
#129 = B_SPLINE_CURVE_WITH_KNOTS('',1,(#130,#131),.UNSPECIFIED.,.F.,.F.,
  (2,2),(0.,250.),.PIECEWISE_BEZIER_KNOTS.);
#130 = CARTESIAN_POINT('',(182.25722562215,1.937287154468,0.));
#131 = CARTESIAN_POINT('',(182.25722562215,1.937287154468,
    329.60291091969));
#132 = B_SPLINE_SURFACE_WITH_KNOTS('',3,1,(
    (#133,#134)
    ,(#135,#136)
    ,(#137,#138)
    ,(#139,#140)
    ,(#141,#142)
    ,(#143,#144)
    ,(#145,#146)
    ,(#147,#148)
    ,(#149,#150)
    ,(#151,#152)
    ,(#153,#154)
    ,(#155,#156)
    ,(#157,#158)
    ,(#159,#160)
    ,(#161,#162)
    ,(#163,#164)
    ,(#165,#166)
    ,(#167,#168)
    ,(#169,#170)
    ,(#171,#172)
    ,(#173,#174)
    ,(#175,#176)
    ,(#177,#178)
    ,(#179,#180)
    ,(#181,#182)
    ,(#183,#184)
    ,(#185,#186)
    ,(#187,#188)
    ,(#189,#190)
    ,(#191,#192)
    ,(#193,#194)
    ,(#195,#196)
    ,(#197,#198)
    ,(#199,#200)
    ,(#201,#202)
    ,(#203,#204)
    ,(#205,#206
    )),.UNSPECIFIED.,.F.,.F.,.F.,(4,1,1,1,1,1,1,1,1,1,1,1,1,1,1,1,3,1,1,
    1,1,1,1,1,1,1,1,1,1,1,1,1,4),(2,2),(0.,1.105442176871E-02,
    3.231292517007E-02,5.357142857143E-02,7.482993197279E-02,
    9.608843537415E-02,0.159863945578,0.18112244898,0.213010204082,
    0.234268707483,0.276785714286,0.298044217687,0.372448979592,
    0.393707482993,0.436224489796,0.457482993197,0.5,0.542517006803,
    0.563775510204,0.606292517007,0.627551020408,0.701955782313,
    0.723214285714,0.765731292517,0.786989795918,0.81887755102,
    0.840136054422,0.903911564626,0.925170068027,0.946428571429,
    0.96768707483,0.988945578231,1.),(0.,1.),.UNSPECIFIED.);
#133 = CARTESIAN_POINT('',(182.25722562215,-1.937287154468,0.));
#134 = CARTESIAN_POINT('',(182.25722562215,-1.937287154468,
    329.60291091969));
#135 = CARTESIAN_POINT('',(179.57089463226,-2.223136112412,0.));
#136 = CARTESIAN_POINT('',(179.57089463226,-2.223136112412,
    329.60291091969));
#137 = CARTESIAN_POINT('',(171.8053457202,-3.029296214902,0.));
#138 = CARTESIAN_POINT('',(171.8053457202,-3.029296214902,
    329.60291091969));
#139 = CARTESIAN_POINT('',(159.35154477117,-4.23674530387,0.));
#140 = CARTESIAN_POINT('',(159.35154477117,-4.23674530387,
    329.60291091969));
#141 = CARTESIAN_POINT('',(145.18452252756,-5.4957016963,0.));
#142 = CARTESIAN_POINT('',(145.18452252756,-5.4957016963,329.60291091969
    ));
#143 = CARTESIAN_POINT('',(131.67643155109,-6.590146987545,0.));
#144 = CARTESIAN_POINT('',(131.67643155109,-6.590146987545,
    329.60291091969));
#145 = CARTESIAN_POINT('',(110.26116536888,-8.151761125727,0.));
#146 = CARTESIAN_POINT('',(110.26116536888,-8.151761125727,
    329.60291091969));
#147 = CARTESIAN_POINT('',(91.042336743834,-9.197876222283,0.));
#148 = CARTESIAN_POINT('',(91.042336743834,-9.197876222283,
    329.60291091969));
#149 = CARTESIAN_POINT('',(72.317706569137,-9.780035548236,0.));
#150 = CARTESIAN_POINT('',(72.317706569137,-9.780035548236,
    329.60291091969));
#151 = CARTESIAN_POINT('',(61.362974252855,-9.92563447229,0.));
#152 = CARTESIAN_POINT('',(61.362974252855,-9.92563447229,
    329.60291091969));
#153 = CARTESIAN_POINT('',(48.513814543533,-9.832517420457,0.));
#154 = CARTESIAN_POINT('',(48.513814543533,-9.832517420457,
    329.60291091969));
#155 = CARTESIAN_POINT('',(38.410201780646,-9.461410528478,0.));
#156 = CARTESIAN_POINT('',(38.410201780646,-9.461410528478,
    329.60291091969));
#157 = CARTESIAN_POINT('',(24.133357659177,-8.442532869662,0.));
#158 = CARTESIAN_POINT('',(24.133357659177,-8.442532869662,
    329.60291091969));
#159 = CARTESIAN_POINT('',(14.771042571828,-7.095396028862,0.));
#160 = CARTESIAN_POINT('',(14.771042571828,-7.095396028862,
    329.60291091969));
#161 = CARTESIAN_POINT('',(6.91877830502,-5.121878495014,0.));
#162 = CARTESIAN_POINT('',(6.91877830502,-5.121878495014,329.60291091969
    ));
#163 = CARTESIAN_POINT('',(3.404478213581,-3.771960455243,0.));
#164 = CARTESIAN_POINT('',(3.404478213581,-3.771960455243,
    329.60291091969));
#165 = CARTESIAN_POINT('',(0.658931267145,-1.956573023524,0.));
#166 = CARTESIAN_POINT('',(0.658931267145,-1.956573023524,
    329.60291091969));
#167 = CARTESIAN_POINT('',(-8.276412695077E-16,-0.798815353227,0.));
#168 = CARTESIAN_POINT('',(-8.276412695077E-16,-0.798815353227,
    329.60291091969));
#169 = CARTESIAN_POINT('',(1.206105020205E-30,1.629681460647E-15,0.));
#170 = CARTESIAN_POINT('',(1.206105020205E-30,1.629681460647E-15,
    329.60291091969));
#171 = CARTESIAN_POINT('',(8.276412695077E-16,0.798815353227,0.));
#172 = CARTESIAN_POINT('',(8.276412695077E-16,0.798815353227,
    329.60291091969));
#173 = CARTESIAN_POINT('',(0.658931267145,1.956573023524,0.));
#174 = CARTESIAN_POINT('',(0.658931267145,1.956573023524,329.60291091969
    ));
#175 = CARTESIAN_POINT('',(3.404478213581,3.771960455243,0.));
#176 = CARTESIAN_POINT('',(3.404478213581,3.771960455243,329.60291091969
    ));
#177 = CARTESIAN_POINT('',(6.91877830502,5.121878495014,0.));
#178 = CARTESIAN_POINT('',(6.91877830502,5.121878495014,329.60291091969)
  );
#179 = CARTESIAN_POINT('',(14.771042571828,7.095396028862,0.));
#180 = CARTESIAN_POINT('',(14.771042571828,7.095396028862,
    329.60291091969));
#181 = CARTESIAN_POINT('',(24.133357659177,8.442532869662,0.));
#182 = CARTESIAN_POINT('',(24.133357659177,8.442532869662,
    329.60291091969));
#183 = CARTESIAN_POINT('',(38.410201780646,9.461410528478,0.));
#184 = CARTESIAN_POINT('',(38.410201780646,9.461410528478,
    329.60291091969));
#185 = CARTESIAN_POINT('',(48.513814543532,9.832517420457,0.));
#186 = CARTESIAN_POINT('',(48.513814543532,9.832517420457,
    329.60291091969));
#187 = CARTESIAN_POINT('',(61.362974252855,9.92563447229,0.));
#188 = CARTESIAN_POINT('',(61.362974252855,9.92563447229,329.60291091969
    ));
#189 = CARTESIAN_POINT('',(72.317706569137,9.780035548236,0.));
#190 = CARTESIAN_POINT('',(72.317706569137,9.780035548236,
    329.60291091969));
#191 = CARTESIAN_POINT('',(91.042336743834,9.197876222283,0.));
#192 = CARTESIAN_POINT('',(91.042336743834,9.197876222283,
    329.60291091969));
#193 = CARTESIAN_POINT('',(110.26116536888,8.151761125727,0.));
#194 = CARTESIAN_POINT('',(110.26116536888,8.151761125727,
    329.60291091969));
#195 = CARTESIAN_POINT('',(131.67643155109,6.590146987545,0.));
#196 = CARTESIAN_POINT('',(131.67643155109,6.590146987545,
    329.60291091969));
#197 = CARTESIAN_POINT('',(145.18452252756,5.4957016963,0.));
#198 = CARTESIAN_POINT('',(145.18452252756,5.4957016963,329.60291091969)
  );
#199 = CARTESIAN_POINT('',(159.35154477117,4.23674530387,0.));
#200 = CARTESIAN_POINT('',(159.35154477117,4.23674530387,329.60291091969
    ));
#201 = CARTESIAN_POINT('',(171.8053457202,3.029296214902,0.));
#202 = CARTESIAN_POINT('',(171.8053457202,3.029296214902,329.60291091969
    ));
#203 = CARTESIAN_POINT('',(179.57089463226,2.223136112412,0.));
#204 = CARTESIAN_POINT('',(179.57089463226,2.223136112412,
    329.60291091969));
#205 = CARTESIAN_POINT('',(182.25722562215,1.937287154468,0.));
#206 = CARTESIAN_POINT('',(182.25722562215,1.937287154468,
    329.60291091969));
#207 = ADVANCED_FACE('',(#208),#216,.F.);
#208 = FACE_BOUND('',#209,.F.);
#209 = EDGE_LOOP('',(#210,#211));
#210 = ORIENTED_EDGE('',*,*,#86,.T.);
#211 = ORIENTED_EDGE('',*,*,#212,.F.);
#212 = EDGE_CURVE('',#87,#80,#213,.T.);
#213 = B_SPLINE_CURVE_WITH_KNOTS('',1,(#214,#215),.UNSPECIFIED.,.F.,.F.,
  (2,2),(0.,2.938819850016),.PIECEWISE_BEZIER_KNOTS.);
#214 = CARTESIAN_POINT('',(182.25722562215,1.937287154468,0.));
#215 = CARTESIAN_POINT('',(182.25722562215,-1.937287154468,0.));
#216 = B_SPLINE_SURFACE_WITH_KNOTS('',1,1,(
    (#217,#218)
    ,(#219,#220
    )),.UNSPECIFIED.,.F.,.F.,.F.,(2,2),(2,2),(-145.6016670882,
    -7.361667088261),(68.953188012793,84.01014616373),
  .PIECEWISE_BEZIER_KNOTS.);
#217 = CARTESIAN_POINT('',(0.,-9.92563447229,0.));
#218 = CARTESIAN_POINT('',(0.,9.92563447229,0.));
#219 = CARTESIAN_POINT('',(182.25722562215,-9.92563447229,0.));
#220 = CARTESIAN_POINT('',(182.25722562215,9.92563447229,0.));
#221 = ADVANCED_FACE('',(#222),#228,.F.);
#222 = FACE_BOUND('',#223,.F.);
#223 = EDGE_LOOP('',(#224,#225,#226,#227));
#224 = ORIENTED_EDGE('',*,*,#79,.T.);
#225 = ORIENTED_EDGE('',*,*,#65,.F.);
#226 = ORIENTED_EDGE('',*,*,#128,.F.);
#227 = ORIENTED_EDGE('',*,*,#212,.T.);
#228 = B_SPLINE_SURFACE_WITH_KNOTS('',1,1,(
    (#229,#230)
    ,(#231,#232
    )),.UNSPECIFIED.,.F.,.F.,.F.,(2,2),(2,2),(0.,2.938819850016),(0.,
    250.),.PIECEWISE_BEZIER_KNOTS.);
#229 = CARTESIAN_POINT('',(182.25722562215,1.937287154468,0.));
#230 = CARTESIAN_POINT('',(182.25722562215,1.937287154468,
    329.60291091969));
#231 = CARTESIAN_POINT('',(182.25722562215,-1.937287154468,0.));
#232 = CARTESIAN_POINT('',(182.25722562215,-1.937287154468,
    329.60291091969));
#233 = ( GEOMETRIC_REPRESENTATION_CONTEXT(3) 
GLOBAL_UNCERTAINTY_ASSIGNED_CONTEXT((#237)) GLOBAL_UNIT_ASSIGNED_CONTEXT
((#234,#235,#236)) REPRESENTATION_CONTEXT('Context #1',
  '3D Context with UNIT and UNCERTAINTY') );
#234 = ( LENGTH_UNIT() NAMED_UNIT(*) SI_UNIT(.MILLI.,.METRE.) );
#235 = ( NAMED_UNIT(*) PLANE_ANGLE_UNIT() SI_UNIT($,.RADIAN.) );
#236 = ( NAMED_UNIT(*) SI_UNIT($,.STERADIAN.) SOLID_ANGLE_UNIT() );
#237 = UNCERTAINTY_MEASURE_WITH_UNIT(LENGTH_MEASURE(1.E-07),#234,
  'distance_accuracy_value','confusion accuracy');
#238 = PRODUCT_RELATED_PRODUCT_CATEGORY('part',$,(#7));
ENDSEC;
END-ISO-10303-21;
