ISO-10303-21;
HEADER;
FILE_DESCRIPTION(('FreeCAD Model'),'2;1');
FILE_NAME('Open CASCADE Shape Model','2025-05-03T04:30:35',('FreeCAD'),(
    'FreeCAD'),'Open CASCADE STEP processor 7.6','FreeCAD','Unknown');
FILE_SCHEMA(('AUTOMOTIVE_DESIGN { 1 0 10303 214 1 1 1 1 }'));
ENDSEC;
DATA;
#1 = APPLICATION_PROTOCOL_DEFINITION('international standard',
  'automotive_design',2000,#2);
#2 = APPLICATION_CONTEXT(
  'core data for automotive mechanical design processes');
#3 = SHAPE_DEFINITION_REPRESENTATION(#4,#10);
#4 = PRODUCT_DEFINITION_SHAPE('','',#5);
#5 = PRODUCT_DEFINITION('design','',#6,#9);
#6 = PRODUCT_DEFINITION_FORMATION('','',#7);
#7 = PRODUCT('Open CASCADE STEP translator 7.6 1',
  'Open CASCADE STEP translator 7.6 1','',(#8));
#8 = PRODUCT_CONTEXT('',#2,'mechanical');
#9 = PRODUCT_DEFINITION_CONTEXT('part definition',#2,'design');
#10 = ADVANCED_BREP_SHAPE_REPRESENTATION('',(#11,#15),#305);
#11 = AXIS2_PLACEMENT_3D('',#12,#13,#14);
#12 = CARTESIAN_POINT('',(0.,0.,0.));
#13 = DIRECTION('',(0.,0.,1.));
#14 = DIRECTION('',(1.,0.,-0.));
#15 = MANIFOLD_SOLID_BREP('',#16);
#16 = CLOSED_SHELL('',(#17,#65,#113,#161,#193,#214,#224,#249,#270,#295)
  );
#17 = ADVANCED_FACE('',(#18),#54,.T.);
#18 = FACE_BOUND('',#19,.T.);
#19 = EDGE_LOOP('',(#20,#32,#39,#49));
#20 = ORIENTED_EDGE('',*,*,#21,.F.);
#21 = EDGE_CURVE('',#22,#24,#26,.T.);
#22 = VERTEX_POINT('',#23);
#23 = CARTESIAN_POINT('',(1.373667102989E+03,2.243009361027E-15,
    -18.31556137319));
#24 = VERTEX_POINT('',#25);
#25 = CARTESIAN_POINT('',(1.373667102989E+03,0.,18.315561373191));
#26 = ( BOUNDED_CURVE() B_SPLINE_CURVE(2,(#27,#28,#29,#30,#31),
.UNSPECIFIED.,.F.,.F.) B_SPLINE_CURVE_WITH_KNOTS((3,2,3),(0.,
1.570796326795,3.14159265359),.PIECEWISE_BEZIER_KNOTS.) CURVE() 
GEOMETRIC_REPRESENTATION_ITEM() RATIONAL_B_SPLINE_CURVE((1.,
0.707106781187,1.,0.707106781187,1.)) REPRESENTATION_ITEM('') );
#27 = CARTESIAN_POINT('',(1.373667102989E+03,0.,-18.31556137319));
#28 = CARTESIAN_POINT('',(1.373667102989E+03,18.315561373191,
    -18.31556137319));
#29 = CARTESIAN_POINT('',(1.373667102989E+03,18.315561373191,
    -1.121504680513E-15));
#30 = CARTESIAN_POINT('',(1.373667102989E+03,18.315561373191,
    18.315561373191));
#31 = CARTESIAN_POINT('',(1.373667102989E+03,2.243009361027E-15,
    18.315561373191));
#32 = ORIENTED_EDGE('',*,*,#33,.T.);
#33 = EDGE_CURVE('',#22,#34,#36,.T.);
#34 = VERTEX_POINT('',#35);
#35 = CARTESIAN_POINT('',(915.77806865954,2.243009361027E-15,
    -18.31556137319));
#36 = B_SPLINE_CURVE_WITH_KNOTS('',1,(#37,#38),.UNSPECIFIED.,.F.,.F.,(2,
    2),(-0.,500.),.PIECEWISE_BEZIER_KNOTS.);
#37 = CARTESIAN_POINT('',(1.373667102989E+03,2.243009361027E-15,
    -18.31556137319));
#38 = CARTESIAN_POINT('',(915.77806865954,2.243009361027E-15,
    -18.31556137319));
#39 = ORIENTED_EDGE('',*,*,#40,.T.);
#40 = EDGE_CURVE('',#34,#41,#43,.T.);
#41 = VERTEX_POINT('',#42);
#42 = CARTESIAN_POINT('',(915.77806865954,0.,18.315561373191));
#43 = ( BOUNDED_CURVE() B_SPLINE_CURVE(2,(#44,#45,#46,#47,#48),
.UNSPECIFIED.,.F.,.F.) B_SPLINE_CURVE_WITH_KNOTS((3,2,3),(0.,
1.570796326795,3.14159265359),.PIECEWISE_BEZIER_KNOTS.) CURVE() 
GEOMETRIC_REPRESENTATION_ITEM() RATIONAL_B_SPLINE_CURVE((1.,
0.707106781187,1.,0.707106781187,1.)) REPRESENTATION_ITEM('') );
#44 = CARTESIAN_POINT('',(915.77806865954,0.,-18.31556137319));
#45 = CARTESIAN_POINT('',(915.77806865954,18.315561373191,
    -18.31556137319));
#46 = CARTESIAN_POINT('',(915.77806865954,18.315561373191,
    -1.121504680513E-15));
#47 = CARTESIAN_POINT('',(915.77806865954,18.315561373191,
    18.315561373191));
#48 = CARTESIAN_POINT('',(915.77806865954,2.243009361027E-15,
    18.315561373191));
#49 = ORIENTED_EDGE('',*,*,#50,.F.);
#50 = EDGE_CURVE('',#24,#41,#51,.T.);
#51 = B_SPLINE_CURVE_WITH_KNOTS('',1,(#52,#53),.UNSPECIFIED.,.F.,.F.,(2,
    2),(-0.,500.),.PIECEWISE_BEZIER_KNOTS.);
#52 = CARTESIAN_POINT('',(1.373667102989E+03,0.,18.315561373191));
#53 = CARTESIAN_POINT('',(915.77806865954,0.,18.315561373191));
#54 = ( BOUNDED_SURFACE() B_SPLINE_SURFACE(2,1,(
    (#55,#56)
    ,(#57,#58)
    ,(#59,#60)
    ,(#61,#62)
,(#63,#64
    )),.UNSPECIFIED.,.F.,.F.,.F.) B_SPLINE_SURFACE_WITH_KNOTS((3,2,3),(2
    ,2),(0.,1.570796326795,3.14159265359),(0.,500.),
.PIECEWISE_BEZIER_KNOTS.) GEOMETRIC_REPRESENTATION_ITEM() 
RATIONAL_B_SPLINE_SURFACE((
    (1.,1.)
    ,(0.707106781187,0.707106781187)
    ,(1.,1.)
    ,(0.707106781187,0.707106781187)
,(1.,1.))) REPRESENTATION_ITEM('') SURFACE() );
#55 = CARTESIAN_POINT('',(1.373667102989E+03,0.,18.315561373191));
#56 = CARTESIAN_POINT('',(915.77806865954,0.,18.315561373191));
#57 = CARTESIAN_POINT('',(1.373667102989E+03,18.315561373191,
    18.315561373191));
#58 = CARTESIAN_POINT('',(915.77806865954,18.315561373191,
    18.315561373191));
#59 = CARTESIAN_POINT('',(1.373667102989E+03,18.315561373191,
    1.121504680513E-15));
#60 = CARTESIAN_POINT('',(915.77806865954,18.315561373191,
    1.121504680513E-15));
#61 = CARTESIAN_POINT('',(1.373667102989E+03,18.315561373191,
    -18.31556137319));
#62 = CARTESIAN_POINT('',(915.77806865954,18.315561373191,
    -18.31556137319));
#63 = CARTESIAN_POINT('',(1.373667102989E+03,2.243009361027E-15,
    -18.31556137319));
#64 = CARTESIAN_POINT('',(915.77806865954,2.243009361027E-15,
    -18.31556137319));
#65 = ADVANCED_FACE('',(#66),#102,.T.);
#66 = FACE_BOUND('',#67,.T.);
#67 = EDGE_LOOP('',(#68,#80,#87,#97));
#68 = ORIENTED_EDGE('',*,*,#69,.F.);
#69 = EDGE_CURVE('',#70,#72,#74,.T.);
#70 = VERTEX_POINT('',#71);
#71 = CARTESIAN_POINT('',(915.77806865954,3.925266381796E-15,
    -32.05223240308));
#72 = VERTEX_POINT('',#73);
#73 = CARTESIAN_POINT('',(915.77806865954,0.,32.052232403084));
#74 = ( BOUNDED_CURVE() B_SPLINE_CURVE(2,(#75,#76,#77,#78,#79),
.UNSPECIFIED.,.F.,.F.) B_SPLINE_CURVE_WITH_KNOTS((3,2,3),(0.,
1.570796326795,3.14159265359),.PIECEWISE_BEZIER_KNOTS.) CURVE() 
GEOMETRIC_REPRESENTATION_ITEM() RATIONAL_B_SPLINE_CURVE((1.,
0.707106781187,1.,0.707106781187,1.)) REPRESENTATION_ITEM('') );
#75 = CARTESIAN_POINT('',(915.77806865954,0.,-32.05223240308));
#76 = CARTESIAN_POINT('',(915.77806865954,32.052232403084,
    -32.05223240308));
#77 = CARTESIAN_POINT('',(915.77806865954,32.052232403084,
    -1.962633190898E-15));
#78 = CARTESIAN_POINT('',(915.77806865954,32.052232403084,
    32.052232403084));
#79 = CARTESIAN_POINT('',(915.77806865954,3.925266381796E-15,
    32.052232403084));
#80 = ORIENTED_EDGE('',*,*,#81,.T.);
#81 = EDGE_CURVE('',#70,#82,#84,.T.);
#82 = VERTEX_POINT('',#83);
#83 = CARTESIAN_POINT('',(457.88903432977,3.925266381796E-15,
    -32.05223240308));
#84 = B_SPLINE_CURVE_WITH_KNOTS('',1,(#85,#86),.UNSPECIFIED.,.F.,.F.,(2,
    2),(-0.,500.),.PIECEWISE_BEZIER_KNOTS.);
#85 = CARTESIAN_POINT('',(915.77806865954,3.925266381796E-15,
    -32.05223240308));
#86 = CARTESIAN_POINT('',(457.88903432977,3.925266381796E-15,
    -32.05223240308));
#87 = ORIENTED_EDGE('',*,*,#88,.T.);
#88 = EDGE_CURVE('',#82,#89,#91,.T.);
#89 = VERTEX_POINT('',#90);
#90 = CARTESIAN_POINT('',(457.88903432977,0.,32.052232403084));
#91 = ( BOUNDED_CURVE() B_SPLINE_CURVE(2,(#92,#93,#94,#95,#96),
.UNSPECIFIED.,.F.,.F.) B_SPLINE_CURVE_WITH_KNOTS((3,2,3),(0.,
1.570796326795,3.14159265359),.PIECEWISE_BEZIER_KNOTS.) CURVE() 
GEOMETRIC_REPRESENTATION_ITEM() RATIONAL_B_SPLINE_CURVE((1.,
0.707106781187,1.,0.707106781187,1.)) REPRESENTATION_ITEM('') );
#92 = CARTESIAN_POINT('',(457.88903432977,0.,-32.05223240308));
#93 = CARTESIAN_POINT('',(457.88903432977,32.052232403084,
    -32.05223240308));
#94 = CARTESIAN_POINT('',(457.88903432977,32.052232403084,
    -1.962633190898E-15));
#95 = CARTESIAN_POINT('',(457.88903432977,32.052232403084,
    32.052232403084));
#96 = CARTESIAN_POINT('',(457.88903432977,3.925266381796E-15,
    32.052232403084));
#97 = ORIENTED_EDGE('',*,*,#98,.F.);
#98 = EDGE_CURVE('',#72,#89,#99,.T.);
#99 = B_SPLINE_CURVE_WITH_KNOTS('',1,(#100,#101),.UNSPECIFIED.,.F.,.F.,(
    2,2),(-0.,500.),.PIECEWISE_BEZIER_KNOTS.);
#100 = CARTESIAN_POINT('',(915.77806865954,0.,32.052232403084));
#101 = CARTESIAN_POINT('',(457.88903432977,0.,32.052232403084));
#102 = ( BOUNDED_SURFACE() B_SPLINE_SURFACE(2,1,(
    (#103,#104)
    ,(#105,#106)
    ,(#107,#108)
    ,(#109,#110)
,(#111,#112
    )),.UNSPECIFIED.,.F.,.F.,.F.) B_SPLINE_SURFACE_WITH_KNOTS((3,2,3),(2
    ,2),(0.,1.570796326795,3.14159265359),(0.,500.),
.PIECEWISE_BEZIER_KNOTS.) GEOMETRIC_REPRESENTATION_ITEM() 
RATIONAL_B_SPLINE_SURFACE((
    (1.,1.)
    ,(0.707106781187,0.707106781187)
    ,(1.,1.)
    ,(0.707106781187,0.707106781187)
,(1.,1.))) REPRESENTATION_ITEM('') SURFACE() );
#103 = CARTESIAN_POINT('',(915.77806865954,0.,32.052232403084));
#104 = CARTESIAN_POINT('',(457.88903432977,0.,32.052232403084));
#105 = CARTESIAN_POINT('',(915.77806865954,32.052232403084,
    32.052232403084));
#106 = CARTESIAN_POINT('',(457.88903432977,32.052232403084,
    32.052232403084));
#107 = CARTESIAN_POINT('',(915.77806865954,32.052232403084,
    1.962633190898E-15));
#108 = CARTESIAN_POINT('',(457.88903432977,32.052232403084,
    1.962633190898E-15));
#109 = CARTESIAN_POINT('',(915.77806865954,32.052232403084,
    -32.05223240308));
#110 = CARTESIAN_POINT('',(457.88903432977,32.052232403084,
    -32.05223240308));
#111 = CARTESIAN_POINT('',(915.77806865954,3.925266381796E-15,
    -32.05223240308));
#112 = CARTESIAN_POINT('',(457.88903432977,3.925266381796E-15,
    -32.05223240308));
#113 = ADVANCED_FACE('',(#114),#150,.T.);
#114 = FACE_BOUND('',#115,.T.);
#115 = EDGE_LOOP('',(#116,#128,#135,#145));
#116 = ORIENTED_EDGE('',*,*,#117,.F.);
#117 = EDGE_CURVE('',#118,#120,#122,.T.);
#118 = VERTEX_POINT('',#119);
#119 = CARTESIAN_POINT('',(457.88903432977,5.607523402566E-15,
    -45.78890343297));
#120 = VERTEX_POINT('',#121);
#121 = CARTESIAN_POINT('',(457.88903432977,0.,45.788903432977));
#122 = ( BOUNDED_CURVE() B_SPLINE_CURVE(2,(#123,#124,#125,#126,#127),
.UNSPECIFIED.,.F.,.F.) B_SPLINE_CURVE_WITH_KNOTS((3,2,3),(0.,
1.570796326795,3.14159265359),.PIECEWISE_BEZIER_KNOTS.) CURVE() 
GEOMETRIC_REPRESENTATION_ITEM() RATIONAL_B_SPLINE_CURVE((1.,
0.707106781187,1.,0.707106781187,1.)) REPRESENTATION_ITEM('') );
#123 = CARTESIAN_POINT('',(457.88903432977,0.,-45.78890343297));
#124 = CARTESIAN_POINT('',(457.88903432977,45.788903432977,
    -45.78890343297));
#125 = CARTESIAN_POINT('',(457.88903432977,45.788903432977,
    -2.803761701283E-15));
#126 = CARTESIAN_POINT('',(457.88903432977,45.788903432977,
    45.788903432977));
#127 = CARTESIAN_POINT('',(457.88903432977,5.607523402566E-15,
    45.788903432977));
#128 = ORIENTED_EDGE('',*,*,#129,.T.);
#129 = EDGE_CURVE('',#118,#130,#132,.T.);
#130 = VERTEX_POINT('',#131);
#131 = CARTESIAN_POINT('',(0.,5.607523402566E-15,-45.78890343297));
#132 = B_SPLINE_CURVE_WITH_KNOTS('',1,(#133,#134),.UNSPECIFIED.,.F.,.F.,
  (2,2),(-0.,500.),.PIECEWISE_BEZIER_KNOTS.);
#133 = CARTESIAN_POINT('',(457.88903432977,5.607523402566E-15,
    -45.78890343297));
#134 = CARTESIAN_POINT('',(0.,5.607523402566E-15,-45.78890343297));
#135 = ORIENTED_EDGE('',*,*,#136,.T.);
#136 = EDGE_CURVE('',#130,#137,#139,.T.);
#137 = VERTEX_POINT('',#138);
#138 = CARTESIAN_POINT('',(0.,0.,45.788903432977));
#139 = ( BOUNDED_CURVE() B_SPLINE_CURVE(2,(#140,#141,#142,#143,#144),
.UNSPECIFIED.,.F.,.F.) B_SPLINE_CURVE_WITH_KNOTS((3,2,3),(0.,
1.570796326795,3.14159265359),.PIECEWISE_BEZIER_KNOTS.) CURVE() 
GEOMETRIC_REPRESENTATION_ITEM() RATIONAL_B_SPLINE_CURVE((1.,
0.707106781187,1.,0.707106781187,1.)) REPRESENTATION_ITEM('') );
#140 = CARTESIAN_POINT('',(0.,0.,-45.78890343297));
#141 = CARTESIAN_POINT('',(0.,45.788903432977,-45.78890343297));
#142 = CARTESIAN_POINT('',(0.,45.788903432977,-2.803761701283E-15));
#143 = CARTESIAN_POINT('',(0.,45.788903432977,45.788903432977));
#144 = CARTESIAN_POINT('',(0.,5.607523402566E-15,45.788903432977));
#145 = ORIENTED_EDGE('',*,*,#146,.F.);
#146 = EDGE_CURVE('',#120,#137,#147,.T.);
#147 = B_SPLINE_CURVE_WITH_KNOTS('',1,(#148,#149),.UNSPECIFIED.,.F.,.F.,
  (2,2),(-0.,500.),.PIECEWISE_BEZIER_KNOTS.);
#148 = CARTESIAN_POINT('',(457.88903432977,0.,45.788903432977));
#149 = CARTESIAN_POINT('',(0.,0.,45.788903432977));
#150 = ( BOUNDED_SURFACE() B_SPLINE_SURFACE(2,1,(
    (#151,#152)
    ,(#153,#154)
    ,(#155,#156)
    ,(#157,#158)
,(#159,#160
    )),.UNSPECIFIED.,.F.,.F.,.F.) B_SPLINE_SURFACE_WITH_KNOTS((3,2,3),(2
    ,2),(0.,1.570796326795,3.14159265359),(0.,500.),
.PIECEWISE_BEZIER_KNOTS.) GEOMETRIC_REPRESENTATION_ITEM() 
RATIONAL_B_SPLINE_SURFACE((
    (1.,1.)
    ,(0.707106781187,0.707106781187)
    ,(1.,1.)
    ,(0.707106781187,0.707106781187)
,(1.,1.))) REPRESENTATION_ITEM('') SURFACE() );
#151 = CARTESIAN_POINT('',(457.88903432977,0.,45.788903432977));
#152 = CARTESIAN_POINT('',(0.,0.,45.788903432977));
#153 = CARTESIAN_POINT('',(457.88903432977,45.788903432977,
    45.788903432977));
#154 = CARTESIAN_POINT('',(0.,45.788903432977,45.788903432977));
#155 = CARTESIAN_POINT('',(457.88903432977,45.788903432977,
    2.803761701283E-15));
#156 = CARTESIAN_POINT('',(0.,45.788903432977,2.803761701283E-15));
#157 = CARTESIAN_POINT('',(457.88903432977,45.788903432977,
    -45.78890343297));
#158 = CARTESIAN_POINT('',(0.,45.788903432977,-45.78890343297));
#159 = CARTESIAN_POINT('',(457.88903432977,5.607523402566E-15,
    -45.78890343297));
#160 = CARTESIAN_POINT('',(0.,5.607523402566E-15,-45.78890343297));
#161 = ADVANCED_FACE('',(#162),#182,.T.);
#162 = FACE_BOUND('',#163,.T.);
#163 = EDGE_LOOP('',(#164,#165,#173,#174));
#164 = ORIENTED_EDGE('',*,*,#129,.F.);
#165 = ORIENTED_EDGE('',*,*,#166,.F.);
#166 = EDGE_CURVE('',#120,#118,#167,.T.);
#167 = ( BOUNDED_CURVE() B_SPLINE_CURVE(2,(#168,#169,#170,#171,#172),
.UNSPECIFIED.,.F.,.F.) B_SPLINE_CURVE_WITH_KNOTS((3,2,3),(3.14159265359,
4.712388980385,6.28318530718),.PIECEWISE_BEZIER_KNOTS.) CURVE() 
GEOMETRIC_REPRESENTATION_ITEM() RATIONAL_B_SPLINE_CURVE((1.,
0.707106781187,1.,0.707106781187,1.)) REPRESENTATION_ITEM('') );
#168 = CARTESIAN_POINT('',(457.88903432977,5.607523402566E-15,
    45.788903432977));
#169 = CARTESIAN_POINT('',(457.88903432977,-45.78890343297,
    45.788903432977));
#170 = CARTESIAN_POINT('',(457.88903432977,-45.78890343297,
    8.411285103849E-15));
#171 = CARTESIAN_POINT('',(457.88903432977,-45.78890343297,
    -45.78890343297));
#172 = CARTESIAN_POINT('',(457.88903432977,-1.121504680513E-14,
    -45.78890343297));
#173 = ORIENTED_EDGE('',*,*,#146,.T.);
#174 = ORIENTED_EDGE('',*,*,#175,.T.);
#175 = EDGE_CURVE('',#137,#130,#176,.T.);
#176 = ( BOUNDED_CURVE() B_SPLINE_CURVE(2,(#177,#178,#179,#180,#181),
.UNSPECIFIED.,.F.,.F.) B_SPLINE_CURVE_WITH_KNOTS((3,2,3),(3.14159265359,
4.712388980385,6.28318530718),.PIECEWISE_BEZIER_KNOTS.) CURVE() 
GEOMETRIC_REPRESENTATION_ITEM() RATIONAL_B_SPLINE_CURVE((1.,
0.707106781187,1.,0.707106781187,1.)) REPRESENTATION_ITEM('') );
#177 = CARTESIAN_POINT('',(0.,5.607523402566E-15,45.788903432977));
#178 = CARTESIAN_POINT('',(0.,-45.78890343297,45.788903432977));
#179 = CARTESIAN_POINT('',(0.,-45.78890343297,8.411285103849E-15));
#180 = CARTESIAN_POINT('',(0.,-45.78890343297,-45.78890343297));
#181 = CARTESIAN_POINT('',(0.,-1.121504680513E-14,-45.78890343297));
#182 = ( BOUNDED_SURFACE() B_SPLINE_SURFACE(2,1,(
    (#183,#184)
    ,(#185,#186)
    ,(#187,#188)
    ,(#189,#190)
,(#191,#192
    )),.UNSPECIFIED.,.F.,.F.,.F.) B_SPLINE_SURFACE_WITH_KNOTS((3,2,3),(2
    ,2),(3.14159265359,4.712388980385,6.28318530718),(0.,500.),
.PIECEWISE_BEZIER_KNOTS.) GEOMETRIC_REPRESENTATION_ITEM() 
RATIONAL_B_SPLINE_SURFACE((
    (1.,1.)
    ,(0.707106781187,0.707106781187)
    ,(1.,1.)
    ,(0.707106781187,0.707106781187)
,(1.,1.))) REPRESENTATION_ITEM('') SURFACE() );
#183 = CARTESIAN_POINT('',(457.88903432977,5.607523402566E-15,
    -45.78890343297));
#184 = CARTESIAN_POINT('',(0.,5.607523402566E-15,-45.78890343297));
#185 = CARTESIAN_POINT('',(457.88903432977,-45.78890343297,
    -45.78890343297));
#186 = CARTESIAN_POINT('',(0.,-45.78890343297,-45.78890343297));
#187 = CARTESIAN_POINT('',(457.88903432977,-45.78890343297,
    -8.411285103849E-15));
#188 = CARTESIAN_POINT('',(0.,-45.78890343297,-8.411285103849E-15));
#189 = CARTESIAN_POINT('',(457.88903432977,-45.78890343297,
    45.788903432977));
#190 = CARTESIAN_POINT('',(0.,-45.78890343297,45.788903432977));
#191 = CARTESIAN_POINT('',(457.88903432977,-1.121504680513E-14,
    45.788903432977));
#192 = CARTESIAN_POINT('',(0.,-1.121504680513E-14,45.788903432977));
#193 = ADVANCED_FACE('',(#194,#205),#209,.T.);
#194 = FACE_BOUND('',#195,.T.);
#195 = EDGE_LOOP('',(#196,#204));
#196 = ORIENTED_EDGE('',*,*,#197,.F.);
#197 = EDGE_CURVE('',#89,#82,#198,.T.);
#198 = ( BOUNDED_CURVE() B_SPLINE_CURVE(2,(#199,#200,#201,#202,#203),
.UNSPECIFIED.,.F.,.F.) B_SPLINE_CURVE_WITH_KNOTS((3,2,3),(3.14159265359,
4.712388980385,6.28318530718),.PIECEWISE_BEZIER_KNOTS.) CURVE() 
GEOMETRIC_REPRESENTATION_ITEM() RATIONAL_B_SPLINE_CURVE((1.,
0.707106781187,1.,0.707106781187,1.)) REPRESENTATION_ITEM('') );
#199 = CARTESIAN_POINT('',(457.88903432977,3.925266381796E-15,
    32.052232403084));
#200 = CARTESIAN_POINT('',(457.88903432977,-32.05223240308,
    32.052232403084));
#201 = CARTESIAN_POINT('',(457.88903432977,-32.05223240308,
    5.887899572695E-15));
#202 = CARTESIAN_POINT('',(457.88903432977,-32.05223240308,
    -32.05223240308));
#203 = CARTESIAN_POINT('',(457.88903432977,-7.850532763593E-15,
    -32.05223240308));
#204 = ORIENTED_EDGE('',*,*,#88,.F.);
#205 = FACE_BOUND('',#206,.T.);
#206 = EDGE_LOOP('',(#207,#208));
#207 = ORIENTED_EDGE('',*,*,#166,.T.);
#208 = ORIENTED_EDGE('',*,*,#117,.T.);
#209 = B_SPLINE_SURFACE_WITH_KNOTS('',1,1,(
    (#210,#211)
    ,(#212,#213
    )),.UNSPECIFIED.,.F.,.F.,.F.,(2,2),(2,2),(-50.,50.),(-50.,50.),
  .PIECEWISE_BEZIER_KNOTS.);
#210 = CARTESIAN_POINT('',(457.88903432977,-45.78890343297,
    45.788903432977));
#211 = CARTESIAN_POINT('',(457.88903432977,45.788903432977,
    45.788903432977));
#212 = CARTESIAN_POINT('',(457.88903432977,-45.78890343297,
    -45.78890343297));
#213 = CARTESIAN_POINT('',(457.88903432977,45.788903432977,
    -45.78890343297));
#214 = ADVANCED_FACE('',(#215),#219,.F.);
#215 = FACE_BOUND('',#216,.T.);
#216 = EDGE_LOOP('',(#217,#218));
#217 = ORIENTED_EDGE('',*,*,#175,.F.);
#218 = ORIENTED_EDGE('',*,*,#136,.F.);
#219 = B_SPLINE_SURFACE_WITH_KNOTS('',1,1,(
    (#220,#221)
    ,(#222,#223
    )),.UNSPECIFIED.,.F.,.F.,.F.,(2,2),(2,2),(-50.,50.),(-50.,50.),
  .PIECEWISE_BEZIER_KNOTS.);
#220 = CARTESIAN_POINT('',(0.,-45.78890343297,45.788903432977));
#221 = CARTESIAN_POINT('',(0.,45.788903432977,45.788903432977));
#222 = CARTESIAN_POINT('',(0.,-45.78890343297,-45.78890343297));
#223 = CARTESIAN_POINT('',(0.,45.788903432977,-45.78890343297));
#224 = ADVANCED_FACE('',(#225),#238,.T.);
#225 = FACE_BOUND('',#226,.T.);
#226 = EDGE_LOOP('',(#227,#228,#236,#237));
#227 = ORIENTED_EDGE('',*,*,#81,.F.);
#228 = ORIENTED_EDGE('',*,*,#229,.F.);
#229 = EDGE_CURVE('',#72,#70,#230,.T.);
#230 = ( BOUNDED_CURVE() B_SPLINE_CURVE(2,(#231,#232,#233,#234,#235),
.UNSPECIFIED.,.F.,.F.) B_SPLINE_CURVE_WITH_KNOTS((3,2,3),(3.14159265359,
4.712388980385,6.28318530718),.PIECEWISE_BEZIER_KNOTS.) CURVE() 
GEOMETRIC_REPRESENTATION_ITEM() RATIONAL_B_SPLINE_CURVE((1.,
0.707106781187,1.,0.707106781187,1.)) REPRESENTATION_ITEM('') );
#231 = CARTESIAN_POINT('',(915.77806865954,3.925266381796E-15,
    32.052232403084));
#232 = CARTESIAN_POINT('',(915.77806865954,-32.05223240308,
    32.052232403084));
#233 = CARTESIAN_POINT('',(915.77806865954,-32.05223240308,
    5.887899572695E-15));
#234 = CARTESIAN_POINT('',(915.77806865954,-32.05223240308,
    -32.05223240308));
#235 = CARTESIAN_POINT('',(915.77806865954,-7.850532763593E-15,
    -32.05223240308));
#236 = ORIENTED_EDGE('',*,*,#98,.T.);
#237 = ORIENTED_EDGE('',*,*,#197,.T.);
#238 = ( BOUNDED_SURFACE() B_SPLINE_SURFACE(2,1,(
    (#239,#240)
    ,(#241,#242)
    ,(#243,#244)
    ,(#245,#246)
,(#247,#248
    )),.UNSPECIFIED.,.F.,.F.,.F.) B_SPLINE_SURFACE_WITH_KNOTS((3,2,3),(2
    ,2),(3.14159265359,4.712388980385,6.28318530718),(0.,500.),
.PIECEWISE_BEZIER_KNOTS.) GEOMETRIC_REPRESENTATION_ITEM() 
RATIONAL_B_SPLINE_SURFACE((
    (1.,1.)
    ,(0.707106781187,0.707106781187)
    ,(1.,1.)
    ,(0.707106781187,0.707106781187)
,(1.,1.))) REPRESENTATION_ITEM('') SURFACE() );
#239 = CARTESIAN_POINT('',(915.77806865954,3.925266381796E-15,
    -32.05223240308));
#240 = CARTESIAN_POINT('',(457.88903432977,3.925266381796E-15,
    -32.05223240308));
#241 = CARTESIAN_POINT('',(915.77806865954,-32.05223240308,
    -32.05223240308));
#242 = CARTESIAN_POINT('',(457.88903432977,-32.05223240308,
    -32.05223240308));
#243 = CARTESIAN_POINT('',(915.77806865954,-32.05223240308,
    -5.887899572695E-15));
#244 = CARTESIAN_POINT('',(457.88903432977,-32.05223240308,
    -5.887899572695E-15));
#245 = CARTESIAN_POINT('',(915.77806865954,-32.05223240308,
    32.052232403084));
#246 = CARTESIAN_POINT('',(457.88903432977,-32.05223240308,
    32.052232403084));
#247 = CARTESIAN_POINT('',(915.77806865954,-7.850532763593E-15,
    32.052232403084));
#248 = CARTESIAN_POINT('',(457.88903432977,-7.850532763593E-15,
    32.052232403084));
#249 = ADVANCED_FACE('',(#250,#261),#265,.T.);
#250 = FACE_BOUND('',#251,.T.);
#251 = EDGE_LOOP('',(#252,#260));
#252 = ORIENTED_EDGE('',*,*,#253,.F.);
#253 = EDGE_CURVE('',#41,#34,#254,.T.);
#254 = ( BOUNDED_CURVE() B_SPLINE_CURVE(2,(#255,#256,#257,#258,#259),
.UNSPECIFIED.,.F.,.F.) B_SPLINE_CURVE_WITH_KNOTS((3,2,3),(3.14159265359,
4.712388980385,6.28318530718),.PIECEWISE_BEZIER_KNOTS.) CURVE() 
GEOMETRIC_REPRESENTATION_ITEM() RATIONAL_B_SPLINE_CURVE((1.,
0.707106781187,1.,0.707106781187,1.)) REPRESENTATION_ITEM('') );
#255 = CARTESIAN_POINT('',(915.77806865954,2.243009361027E-15,
    18.315561373191));
#256 = CARTESIAN_POINT('',(915.77806865954,-18.31556137319,
    18.315561373191));
#257 = CARTESIAN_POINT('',(915.77806865954,-18.31556137319,
    3.36451404154E-15));
#258 = CARTESIAN_POINT('',(915.77806865954,-18.31556137319,
    -18.31556137319));
#259 = CARTESIAN_POINT('',(915.77806865954,-4.486018722053E-15,
    -18.31556137319));
#260 = ORIENTED_EDGE('',*,*,#40,.F.);
#261 = FACE_BOUND('',#262,.T.);
#262 = EDGE_LOOP('',(#263,#264));
#263 = ORIENTED_EDGE('',*,*,#229,.T.);
#264 = ORIENTED_EDGE('',*,*,#69,.T.);
#265 = B_SPLINE_SURFACE_WITH_KNOTS('',1,1,(
    (#266,#267)
    ,(#268,#269
    )),.UNSPECIFIED.,.F.,.F.,.F.,(2,2),(2,2),(-35.,35.),(-35.,35.),
  .PIECEWISE_BEZIER_KNOTS.);
#266 = CARTESIAN_POINT('',(915.77806865954,-32.05223240308,
    32.052232403084));
#267 = CARTESIAN_POINT('',(915.77806865954,32.052232403084,
    32.052232403084));
#268 = CARTESIAN_POINT('',(915.77806865954,-32.05223240308,
    -32.05223240308));
#269 = CARTESIAN_POINT('',(915.77806865954,32.052232403084,
    -32.05223240308));
#270 = ADVANCED_FACE('',(#271),#284,.T.);
#271 = FACE_BOUND('',#272,.T.);
#272 = EDGE_LOOP('',(#273,#274,#282,#283));
#273 = ORIENTED_EDGE('',*,*,#33,.F.);
#274 = ORIENTED_EDGE('',*,*,#275,.F.);
#275 = EDGE_CURVE('',#24,#22,#276,.T.);
#276 = ( BOUNDED_CURVE() B_SPLINE_CURVE(2,(#277,#278,#279,#280,#281),
.UNSPECIFIED.,.F.,.F.) B_SPLINE_CURVE_WITH_KNOTS((3,2,3),(3.14159265359,
4.712388980385,6.28318530718),.PIECEWISE_BEZIER_KNOTS.) CURVE() 
GEOMETRIC_REPRESENTATION_ITEM() RATIONAL_B_SPLINE_CURVE((1.,
0.707106781187,1.,0.707106781187,1.)) REPRESENTATION_ITEM('') );
#277 = CARTESIAN_POINT('',(1.373667102989E+03,2.243009361027E-15,
    18.315561373191));
#278 = CARTESIAN_POINT('',(1.373667102989E+03,-18.31556137319,
    18.315561373191));
#279 = CARTESIAN_POINT('',(1.373667102989E+03,-18.31556137319,
    3.36451404154E-15));
#280 = CARTESIAN_POINT('',(1.373667102989E+03,-18.31556137319,
    -18.31556137319));
#281 = CARTESIAN_POINT('',(1.373667102989E+03,-4.486018722053E-15,
    -18.31556137319));
#282 = ORIENTED_EDGE('',*,*,#50,.T.);
#283 = ORIENTED_EDGE('',*,*,#253,.T.);
#284 = ( BOUNDED_SURFACE() B_SPLINE_SURFACE(2,1,(
    (#285,#286)
    ,(#287,#288)
    ,(#289,#290)
    ,(#291,#292)
,(#293,#294
    )),.UNSPECIFIED.,.F.,.F.,.F.) B_SPLINE_SURFACE_WITH_KNOTS((3,2,3),(2
    ,2),(3.14159265359,4.712388980385,6.28318530718),(0.,500.),
.PIECEWISE_BEZIER_KNOTS.) GEOMETRIC_REPRESENTATION_ITEM() 
RATIONAL_B_SPLINE_SURFACE((
    (1.,1.)
    ,(0.707106781187,0.707106781187)
    ,(1.,1.)
    ,(0.707106781187,0.707106781187)
,(1.,1.))) REPRESENTATION_ITEM('') SURFACE() );
#285 = CARTESIAN_POINT('',(1.373667102989E+03,2.243009361027E-15,
    -18.31556137319));
#286 = CARTESIAN_POINT('',(915.77806865954,2.243009361027E-15,
    -18.31556137319));
#287 = CARTESIAN_POINT('',(1.373667102989E+03,-18.31556137319,
    -18.31556137319));
#288 = CARTESIAN_POINT('',(915.77806865954,-18.31556137319,
    -18.31556137319));
#289 = CARTESIAN_POINT('',(1.373667102989E+03,-18.31556137319,
    -3.36451404154E-15));
#290 = CARTESIAN_POINT('',(915.77806865954,-18.31556137319,
    -3.36451404154E-15));
#291 = CARTESIAN_POINT('',(1.373667102989E+03,-18.31556137319,
    18.315561373191));
#292 = CARTESIAN_POINT('',(915.77806865954,-18.31556137319,
    18.315561373191));
#293 = CARTESIAN_POINT('',(1.373667102989E+03,-4.486018722053E-15,
    18.315561373191));
#294 = CARTESIAN_POINT('',(915.77806865954,-4.486018722053E-15,
    18.315561373191));
#295 = ADVANCED_FACE('',(#296),#300,.T.);
#296 = FACE_BOUND('',#297,.T.);
#297 = EDGE_LOOP('',(#298,#299));
#298 = ORIENTED_EDGE('',*,*,#275,.T.);
#299 = ORIENTED_EDGE('',*,*,#21,.T.);
#300 = B_SPLINE_SURFACE_WITH_KNOTS('',1,1,(
    (#301,#302)
    ,(#303,#304
    )),.UNSPECIFIED.,.F.,.F.,.F.,(2,2),(2,2),(-20.,20.),(-20.,20.),
  .PIECEWISE_BEZIER_KNOTS.);
#301 = CARTESIAN_POINT('',(1.373667102989E+03,-18.31556137319,
    18.315561373191));
#302 = CARTESIAN_POINT('',(1.373667102989E+03,18.315561373191,
    18.315561373191));
#303 = CARTESIAN_POINT('',(1.373667102989E+03,-18.31556137319,
    -18.31556137319));
#304 = CARTESIAN_POINT('',(1.373667102989E+03,18.315561373191,
    -18.31556137319));
#305 = ( GEOMETRIC_REPRESENTATION_CONTEXT(3) 
GLOBAL_UNCERTAINTY_ASSIGNED_CONTEXT((#309)) GLOBAL_UNIT_ASSIGNED_CONTEXT
((#306,#307,#308)) REPRESENTATION_CONTEXT('Context #1',
  '3D Context with UNIT and UNCERTAINTY') );
#306 = ( LENGTH_UNIT() NAMED_UNIT(*) SI_UNIT(.MILLI.,.METRE.) );
#307 = ( NAMED_UNIT(*) PLANE_ANGLE_UNIT() SI_UNIT($,.RADIAN.) );
#308 = ( NAMED_UNIT(*) SI_UNIT($,.STERADIAN.) SOLID_ANGLE_UNIT() );
#309 = UNCERTAINTY_MEASURE_WITH_UNIT(LENGTH_MEASURE(1.E-07),#306,
  'distance_accuracy_value','confusion accuracy');
#310 = PRODUCT_RELATED_PRODUCT_CATEGORY('part',$,(#7));
ENDSEC;
END-ISO-10303-21;
