ISO-10303-21;
HEADER;
FILE_DESCRIPTION(('FreeCAD Model'),'2;1');
FILE_NAME('Open CASCADE Shape Model','2025-05-03T02:41:24',('FreeCAD'),(
    'FreeCAD'),'Open CASCADE STEP processor 7.6','FreeCAD','Unknown');
FILE_SCHEMA(('AUTOMOTIVE_DESIGN { 1 0 10303 214 1 1 1 1 }'));
ENDSEC;
DATA;
#1 = APPLICATION_PROTOCOL_DEFINITION('international standard',
  'automotive_design',2000,#2);
#2 = APPLICATION_CONTEXT(
  'core data for automotive mechanical design processes');
#3 = SHAPE_DEFINITION_REPRESENTATION(#4,#10);
#4 = PRODUCT_DEFINITION_SHAPE('','',#5);
#5 = PRODUCT_DEFINITION('design','',#6,#9);
#6 = PRODUCT_DEFINITION_FORMATION('','',#7);
#7 = PRODUCT('Open CASCADE STEP translator 7.6 1',
  'Open CASCADE STEP translator 7.6 1','',(#8));
#8 = PRODUCT_CONTEXT('',#2,'mechanical');
#9 = PRODUCT_DEFINITION_CONTEXT('part definition',#2,'design');
#10 = ADVANCED_BREP_SHAPE_REPRESENTATION('',(#11,#15),#237);
#11 = AXIS2_PLACEMENT_3D('',#12,#13,#14);
#12 = CARTESIAN_POINT('',(0.,0.,0.));
#13 = DIRECTION('',(0.,0.,1.));
#14 = DIRECTION('',(1.,0.,-0.));
#15 = MANIFOLD_SOLID_BREP('',#16);
#16 = CLOSED_SHELL('',(#17,#109,#137,#215,#226));
#17 = ADVANCED_FACE('',(#18),#80,.T.);
#18 = FACE_BOUND('',#19,.T.);
#19 = EDGE_LOOP('',(#20,#45,#52,#75));
#20 = ORIENTED_EDGE('',*,*,#21,.F.);
#21 = EDGE_CURVE('',#22,#24,#26,.T.);
#22 = VERTEX_POINT('',#23);
#23 = CARTESIAN_POINT('',(-65.08679144428,53.632820090943,0.));
#24 = VERTEX_POINT('',#25);
#25 = CARTESIAN_POINT('',(-21.76556284486,32.90450388826,0.));
#26 = B_SPLINE_CURVE_WITH_KNOTS('',3,(#27,#28,#29,#30,#31,#32,#33,#34,
    #35,#36,#37,#38,#39,#40,#41,#42,#43,#44),.UNSPECIFIED.,.F.,.F.,(4,1,
    1,1,1,1,1,1,1,1,1,1,1,1,1,4),(0.,0.125,0.25,0.375,0.4375,0.5,0.5625,
    0.625,0.6875,0.71875,0.75,0.78125,0.8125,0.875,0.9375,1.),
  .UNSPECIFIED.);
#27 = CARTESIAN_POINT('',(-65.08679144428,53.632820090943,0.));
#28 = CARTESIAN_POINT('',(-62.78852452236,53.632820090943,0.));
#29 = CARTESIAN_POINT('',(-58.19195710031,53.591077540223,0.));
#30 = CARTESIAN_POINT('',(-51.30111741453,53.347393253435,0.));
#31 = CARTESIAN_POINT('',(-45.57046715815,52.915254721368,0.));
#32 = CARTESIAN_POINT('',(-41.0105530459,52.337097890642,0.));
#33 = CARTESIAN_POINT('',(-37.61502711068,51.742131399076,0.));
#34 = CARTESIAN_POINT('',(-34.26532603408,50.924701368663,0.));
#35 = CARTESIAN_POINT('',(-31.00911987968,49.784644089592,0.));
#36 = CARTESIAN_POINT('',(-28.46030948429,48.442164638677,0.));
#37 = CARTESIAN_POINT('',(-26.62478321359,47.059338155044,0.));
#38 = CARTESIAN_POINT('',(-25.38759422813,45.859245359133,0.));
#39 = CARTESIAN_POINT('',(-24.32459669598,44.50227746593,0.));
#40 = CARTESIAN_POINT('',(-23.17173437254,42.513158033454,0.));
#41 = CARTESIAN_POINT('',(-22.25279090758,39.775814462038,0.));
#42 = CARTESIAN_POINT('',(-21.81315519699,36.351109212096,0.));
#43 = CARTESIAN_POINT('',(-21.76556284486,34.053319381401,0.));
#44 = CARTESIAN_POINT('',(-21.76556284486,32.90450388826,0.));
#45 = ORIENTED_EDGE('',*,*,#46,.F.);
#46 = EDGE_CURVE('',#47,#22,#49,.T.);
#47 = VERTEX_POINT('',#48);
#48 = CARTESIAN_POINT('',(-65.08679144428,53.632820090943,2.412189890193
    ));
#49 = B_SPLINE_CURVE_WITH_KNOTS('',1,(#50,#51),.UNSPECIFIED.,.F.,.F.,(2,
    2),(0.,2.116666666667),.PIECEWISE_BEZIER_KNOTS.);
#50 = CARTESIAN_POINT('',(-65.08679144428,53.632820090943,2.412189890193
    ));
#51 = CARTESIAN_POINT('',(-65.08679144428,53.632820090943,0.));
#52 = ORIENTED_EDGE('',*,*,#53,.T.);
#53 = EDGE_CURVE('',#47,#54,#56,.T.);
#54 = VERTEX_POINT('',#55);
#55 = CARTESIAN_POINT('',(-21.76556284486,32.90450388826,2.412189890193)
  );
#56 = B_SPLINE_CURVE_WITH_KNOTS('',3,(#57,#58,#59,#60,#61,#62,#63,#64,
    #65,#66,#67,#68,#69,#70,#71,#72,#73,#74),.UNSPECIFIED.,.F.,.F.,(4,1,
    1,1,1,1,1,1,1,1,1,1,1,1,1,4),(0.,0.125,0.25,0.375,0.4375,0.5,0.5625,
    0.625,0.6875,0.71875,0.75,0.78125,0.8125,0.875,0.9375,1.),
  .UNSPECIFIED.);
#57 = CARTESIAN_POINT('',(-65.08679144428,53.632820090943,2.412189890193
    ));
#58 = CARTESIAN_POINT('',(-62.78852452236,53.632820090943,2.412189890193
    ));
#59 = CARTESIAN_POINT('',(-58.19195710031,53.591077540223,2.412189890193
    ));
#60 = CARTESIAN_POINT('',(-51.30111741453,53.347393253435,2.412189890193
    ));
#61 = CARTESIAN_POINT('',(-45.57046715815,52.915254721368,2.412189890193
    ));
#62 = CARTESIAN_POINT('',(-41.0105530459,52.337097890642,2.412189890193)
  );
#63 = CARTESIAN_POINT('',(-37.61502711068,51.742131399076,2.412189890193
    ));
#64 = CARTESIAN_POINT('',(-34.26532603408,50.924701368663,2.412189890193
    ));
#65 = CARTESIAN_POINT('',(-31.00911987968,49.784644089592,2.412189890193
    ));
#66 = CARTESIAN_POINT('',(-28.46030948429,48.442164638677,2.412189890193
    ));
#67 = CARTESIAN_POINT('',(-26.62478321359,47.059338155044,2.412189890193
    ));
#68 = CARTESIAN_POINT('',(-25.38759422813,45.859245359133,2.412189890193
    ));
#69 = CARTESIAN_POINT('',(-24.32459669598,44.50227746593,2.412189890193)
  );
#70 = CARTESIAN_POINT('',(-23.17173437254,42.513158033454,2.412189890193
    ));
#71 = CARTESIAN_POINT('',(-22.25279090758,39.775814462038,2.412189890193
    ));
#72 = CARTESIAN_POINT('',(-21.81315519699,36.351109212096,2.412189890193
    ));
#73 = CARTESIAN_POINT('',(-21.76556284486,34.053319381401,2.412189890193
    ));
#74 = CARTESIAN_POINT('',(-21.76556284486,32.90450388826,2.412189890193)
  );
#75 = ORIENTED_EDGE('',*,*,#76,.T.);
#76 = EDGE_CURVE('',#54,#24,#77,.T.);
#77 = B_SPLINE_CURVE_WITH_KNOTS('',1,(#78,#79),.UNSPECIFIED.,.F.,.F.,(2,
    2),(0.,2.116666666667),.PIECEWISE_BEZIER_KNOTS.);
#78 = CARTESIAN_POINT('',(-21.76556284486,32.90450388826,2.412189890193)
  );
#79 = CARTESIAN_POINT('',(-21.76556284486,32.90450388826,0.));
#80 = B_SPLINE_SURFACE_WITH_KNOTS('',3,1,(
    (#81,#82)
    ,(#83,#84)
    ,(#85,#86)
    ,(#87,#88)
    ,(#89,#90)
    ,(#91,#92)
    ,(#93,#94)
    ,(#95,#96)
    ,(#97,#98)
    ,(#99,#100)
    ,(#101,#102)
    ,(#103,#104)
    ,(#105,#106)
    ,(#107,#108
    )),.UNSPECIFIED.,.F.,.F.,.F.,(4,1,1,1,1,1,1,1,1,1,1,4),(2,2),(0.,
    0.125,0.25,0.375,0.5,0.625,0.6875,0.75,0.8125,0.875,0.9375,1.),(0.,
    1.),.UNSPECIFIED.);
#81 = CARTESIAN_POINT('',(-65.08679144428,53.632820090943,2.412189890193
    ));
#82 = CARTESIAN_POINT('',(-65.08679144428,53.632820090943,0.));
#83 = CARTESIAN_POINT('',(-62.78852452236,53.632820090943,2.412189890193
    ));
#84 = CARTESIAN_POINT('',(-62.78852452236,53.632820090943,0.));
#85 = CARTESIAN_POINT('',(-58.19191997215,53.591039143819,2.412189890193
    ));
#86 = CARTESIAN_POINT('',(-58.19191997215,53.591039143819,0.));
#87 = CARTESIAN_POINT('',(-51.30124736311,53.347527640847,2.412189890193
    ));
#88 = CARTESIAN_POINT('',(-51.30124736311,53.347527640847,
    4.942302083897E-16));
#89 = CARTESIAN_POINT('',(-44.42385444072,52.828327861709,2.412189890193
    ));
#90 = CARTESIAN_POINT('',(-44.42385444072,52.828327861709,0.));
#91 = CARTESIAN_POINT('',(-37.598569701,51.8472309919,2.412189890193));
#92 = CARTESIAN_POINT('',(-37.598569701,51.8472309919,0.));
#93 = CARTESIAN_POINT('',(-32.0313068485,50.318766020568,2.412189890193)
  );
#94 = CARTESIAN_POINT('',(-32.0313068485,50.318766020568,0.));
#95 = CARTESIAN_POINT('',(-27.95011021149,48.175248202362,2.412189890193
    ));
#96 = CARTESIAN_POINT('',(-27.95011021149,48.175248202362,
    4.942302083897E-16));
#97 = CARTESIAN_POINT('',(-25.29887998725,45.940447269699,2.412189890193
    ));
#98 = CARTESIAN_POINT('',(-25.29887998725,45.940447269699,0.));
#99 = CARTESIAN_POINT('',(-23.35412666159,43.061559776346,2.412189890193
    ));
#100 = CARTESIAN_POINT('',(-23.35412666159,43.061559776346,
    4.942302083897E-16));
#101 = CARTESIAN_POINT('',(-22.25316686248,39.775563262029,
    2.412189890193));
#102 = CARTESIAN_POINT('',(-22.25316686248,39.775563262029,0.));
#103 = CARTESIAN_POINT('',(-21.81304778131,36.351180983528,
    2.412189890193));
#104 = CARTESIAN_POINT('',(-21.81304778131,36.351180983528,
    4.942302083897E-16));
#105 = CARTESIAN_POINT('',(-21.76556284486,34.053319381401,
    2.412189890193));
#106 = CARTESIAN_POINT('',(-21.76556284486,34.053319381401,0.));
#107 = CARTESIAN_POINT('',(-21.76556284486,32.90450388826,2.412189890193
    ));
#108 = CARTESIAN_POINT('',(-21.76556284486,32.90450388826,0.));
#109 = ADVANCED_FACE('',(#110),#132,.F.);
#110 = FACE_BOUND('',#111,.T.);
#111 = EDGE_LOOP('',(#112,#119,#126,#131));
#112 = ORIENTED_EDGE('',*,*,#113,.T.);
#113 = EDGE_CURVE('',#22,#114,#116,.T.);
#114 = VERTEX_POINT('',#115);
#115 = CARTESIAN_POINT('',(-65.08679144428,12.176187685577,0.));
#116 = B_SPLINE_CURVE_WITH_KNOTS('',1,(#117,#118),.UNSPECIFIED.,.F.,.F.,
  (2,2),(-0.74892,35.62876),.PIECEWISE_BEZIER_KNOTS.);
#117 = CARTESIAN_POINT('',(-65.08679144428,53.632820090943,0.));
#118 = CARTESIAN_POINT('',(-65.08679144428,12.176187685577,0.));
#119 = ORIENTED_EDGE('',*,*,#120,.F.);
#120 = EDGE_CURVE('',#121,#114,#123,.T.);
#121 = VERTEX_POINT('',#122);
#122 = CARTESIAN_POINT('',(-65.08679144428,12.176187685577,
    2.412189890193));
#123 = B_SPLINE_CURVE_WITH_KNOTS('',1,(#124,#125),.UNSPECIFIED.,.F.,.F.,
  (2,2),(0.,2.116666666667),.PIECEWISE_BEZIER_KNOTS.);
#124 = CARTESIAN_POINT('',(-65.08679144428,12.176187685577,
    2.412189890193));
#125 = CARTESIAN_POINT('',(-65.08679144428,12.176187685577,0.));
#126 = ORIENTED_EDGE('',*,*,#127,.F.);
#127 = EDGE_CURVE('',#47,#121,#128,.T.);
#128 = B_SPLINE_CURVE_WITH_KNOTS('',1,(#129,#130),.UNSPECIFIED.,.F.,.F.,
  (2,2),(-0.74892,35.62876),.PIECEWISE_BEZIER_KNOTS.);
#129 = CARTESIAN_POINT('',(-65.08679144428,53.632820090943,
    2.412189890193));
#130 = CARTESIAN_POINT('',(-65.08679144428,12.176187685577,
    2.412189890193));
#131 = ORIENTED_EDGE('',*,*,#46,.T.);
#132 = B_SPLINE_SURFACE_WITH_KNOTS('',1,1,(
    (#133,#134)
    ,(#135,#136
    )),.UNSPECIFIED.,.F.,.F.,.F.,(2,2),(2,2),(0.,2.116666666667),(
    -35.62876,0.74892),.PIECEWISE_BEZIER_KNOTS.);
#133 = CARTESIAN_POINT('',(-65.08679144428,12.176187685577,
    2.412189890193));
#134 = CARTESIAN_POINT('',(-65.08679144428,53.632820090943,
    2.412189890193));
#135 = CARTESIAN_POINT('',(-65.08679144428,12.176187685577,0.));
#136 = CARTESIAN_POINT('',(-65.08679144428,53.632820090943,0.));
#137 = ADVANCED_FACE('',(#138),#186,.T.);
#138 = FACE_BOUND('',#139,.T.);
#139 = EDGE_LOOP('',(#140,#162,#163,#185));
#140 = ORIENTED_EDGE('',*,*,#141,.F.);
#141 = EDGE_CURVE('',#24,#114,#142,.T.);
#142 = B_SPLINE_CURVE_WITH_KNOTS('',3,(#143,#144,#145,#146,#147,#148,
    #149,#150,#151,#152,#153,#154,#155,#156,#157,#158,#159,#160,#161),
  .UNSPECIFIED.,.F.,.F.,(4,1,1,1,1,1,1,1,1,1,1,1,1,1,1,1,4),(0.,6.25E-02
    ,0.125,0.15625,0.1875,0.21875,0.25,0.28125,0.3125,0.375,0.4375,0.5,
    0.5625,0.625,0.75,0.875,1.),.UNSPECIFIED.);
#143 = CARTESIAN_POINT('',(-21.76556284486,32.90450388826,0.));
#144 = CARTESIAN_POINT('',(-21.76556284486,31.755687360328,0.));
#145 = CARTESIAN_POINT('',(-21.81272437295,29.457978352329,0.));
#146 = CARTESIAN_POINT('',(-22.18071906893,26.603722150849,0.));
#147 = CARTESIAN_POINT('',(-22.80216699038,24.391287213993,0.));
#148 = CARTESIAN_POINT('',(-23.46044761437,22.798472058096,0.));
#149 = CARTESIAN_POINT('',(-24.32444697695,21.306748754888,0.));
#150 = CARTESIAN_POINT('',(-25.38793009963,19.950046846363,0.));
#151 = CARTESIAN_POINT('',(-26.62465635316,18.749493616018,0.));
#152 = CARTESIAN_POINT('',(-28.46039142511,17.366961646747,0.));
#153 = CARTESIAN_POINT('',(-31.00902115991,16.024104527911,0.));
#154 = CARTESIAN_POINT('',(-34.26556096766,14.885047627366,0.));
#155 = CARTESIAN_POINT('',(-37.61491199902,14.066221866397,0.));
#156 = CARTESIAN_POINT('',(-41.01061225017,13.471817852428,0.));
#157 = CARTESIAN_POINT('',(-45.5703549223,12.893320354391,0.));
#158 = CARTESIAN_POINT('',(-51.30111426864,12.461593697114,0.));
#159 = CARTESIAN_POINT('',(-58.19195989207,12.217994881322,0.));
#160 = CARTESIAN_POINT('',(-62.78852345228,12.176187685577,0.));
#161 = CARTESIAN_POINT('',(-65.08679144428,12.176187685577,0.));
#162 = ORIENTED_EDGE('',*,*,#76,.F.);
#163 = ORIENTED_EDGE('',*,*,#164,.T.);
#164 = EDGE_CURVE('',#54,#121,#165,.T.);
#165 = B_SPLINE_CURVE_WITH_KNOTS('',3,(#166,#167,#168,#169,#170,#171,
    #172,#173,#174,#175,#176,#177,#178,#179,#180,#181,#182,#183,#184),
  .UNSPECIFIED.,.F.,.F.,(4,1,1,1,1,1,1,1,1,1,1,1,1,1,1,1,4),(0.,6.25E-02
    ,0.125,0.15625,0.1875,0.21875,0.25,0.28125,0.3125,0.375,0.4375,0.5,
    0.5625,0.625,0.75,0.875,1.),.UNSPECIFIED.);
#166 = CARTESIAN_POINT('',(-21.76556284486,32.90450388826,2.412189890193
    ));
#167 = CARTESIAN_POINT('',(-21.76556284486,31.755687360328,
    2.412189890193));
#168 = CARTESIAN_POINT('',(-21.81272437295,29.457978352329,
    2.412189890193));
#169 = CARTESIAN_POINT('',(-22.18071906893,26.603722150849,
    2.412189890193));
#170 = CARTESIAN_POINT('',(-22.80216699038,24.391287213993,
    2.412189890193));
#171 = CARTESIAN_POINT('',(-23.46044761437,22.798472058096,
    2.412189890193));
#172 = CARTESIAN_POINT('',(-24.32444697695,21.306748754888,
    2.412189890193));
#173 = CARTESIAN_POINT('',(-25.38793009963,19.950046846363,
    2.412189890193));
#174 = CARTESIAN_POINT('',(-26.62465635316,18.749493616018,
    2.412189890193));
#175 = CARTESIAN_POINT('',(-28.46039142511,17.366961646747,
    2.412189890193));
#176 = CARTESIAN_POINT('',(-31.00902115991,16.024104527911,
    2.412189890193));
#177 = CARTESIAN_POINT('',(-34.26556096766,14.885047627366,
    2.412189890193));
#178 = CARTESIAN_POINT('',(-37.61491199902,14.066221866397,
    2.412189890193));
#179 = CARTESIAN_POINT('',(-41.01061225017,13.471817852428,
    2.412189890193));
#180 = CARTESIAN_POINT('',(-45.5703549223,12.893320354391,2.412189890193
    ));
#181 = CARTESIAN_POINT('',(-51.30111426864,12.461593697114,
    2.412189890193));
#182 = CARTESIAN_POINT('',(-58.19195989207,12.217994881322,
    2.412189890193));
#183 = CARTESIAN_POINT('',(-62.78852345228,12.176187685577,
    2.412189890193));
#184 = CARTESIAN_POINT('',(-65.08679144428,12.176187685577,
    2.412189890193));
#185 = ORIENTED_EDGE('',*,*,#120,.T.);
#186 = B_SPLINE_SURFACE_WITH_KNOTS('',3,1,(
    (#187,#188)
    ,(#189,#190)
    ,(#191,#192)
    ,(#193,#194)
    ,(#195,#196)
    ,(#197,#198)
    ,(#199,#200)
    ,(#201,#202)
    ,(#203,#204)
    ,(#205,#206)
    ,(#207,#208)
    ,(#209,#210)
    ,(#211,#212)
    ,(#213,#214
    )),.UNSPECIFIED.,.F.,.F.,.F.,(4,1,1,1,1,1,1,1,1,1,1,4),(2,2),(0.,
    6.25E-02,0.125,0.1875,0.25,0.3125,0.375,0.5,0.625,0.75,0.875,1.),(0.
    ,1.),.UNSPECIFIED.);
#187 = CARTESIAN_POINT('',(-21.76556284486,32.90450388826,2.412189890193
    ));
#188 = CARTESIAN_POINT('',(-21.76556284486,32.90450388826,0.));
#189 = CARTESIAN_POINT('',(-21.76556284486,31.755687360328,
    2.412189890193));
#190 = CARTESIAN_POINT('',(-21.76556284486,31.755687360328,0.));
#191 = CARTESIAN_POINT('',(-21.81302995558,29.457801034392,
    2.412189890193));
#192 = CARTESIAN_POINT('',(-21.81302995558,29.457801034392,0.));
#193 = CARTESIAN_POINT('',(-22.2532484689,26.033491523335,2.412189890193
    ));
#194 = CARTESIAN_POINT('',(-22.2532484689,26.033491523335,
    4.942302083897E-16));
#195 = CARTESIAN_POINT('',(-23.35398854688,22.747398384242,
    2.412189890193));
#196 = CARTESIAN_POINT('',(-23.35398854688,22.747398384242,
    -4.942302083897E-16));
#197 = CARTESIAN_POINT('',(-25.2992017684,19.868839140961,2.412189890193
    ));
#198 = CARTESIAN_POINT('',(-25.2992017684,19.868839140961,
    4.942302083897E-16));
#199 = CARTESIAN_POINT('',(-27.95002810814,17.633674808271,
    2.412189890193));
#200 = CARTESIAN_POINT('',(-27.95002810814,17.633674808271,0.));
#201 = CARTESIAN_POINT('',(-32.03134543023,15.490311860502,
    2.412189890193));
#202 = CARTESIAN_POINT('',(-32.03134543023,15.490311860502,
    4.942302083897E-16));
#203 = CARTESIAN_POINT('',(-37.59852830092,13.961316237941,
    2.412189890193));
#204 = CARTESIAN_POINT('',(-37.59852830092,13.961316237941,
    4.942302083897E-16));
#205 = CARTESIAN_POINT('',(-44.42379915412,12.980377008607,
    2.412189890193));
#206 = CARTESIAN_POINT('',(-44.42379915412,12.980377008607,
    -4.942302083897E-16));
#207 = CARTESIAN_POINT('',(-51.30122301065,12.46140218714,2.412189890193
    ));
#208 = CARTESIAN_POINT('',(-51.30122301065,12.46140218714,
    9.884604167793E-16));
#209 = CARTESIAN_POINT('',(-58.19192882293,12.218049598457,
    2.412189890193));
#210 = CARTESIAN_POINT('',(-58.19192882293,12.218049598457,0.));
#211 = CARTESIAN_POINT('',(-62.78852345228,12.176187685577,
    2.412189890193));
#212 = CARTESIAN_POINT('',(-62.78852345228,12.176187685577,0.));
#213 = CARTESIAN_POINT('',(-65.08679144428,12.176187685577,
    2.412189890193));
#214 = CARTESIAN_POINT('',(-65.08679144428,12.176187685577,0.));
#215 = ADVANCED_FACE('',(#216),#221,.T.);
#216 = FACE_BOUND('',#217,.T.);
#217 = EDGE_LOOP('',(#218,#219,#220));
#218 = ORIENTED_EDGE('',*,*,#53,.F.);
#219 = ORIENTED_EDGE('',*,*,#127,.T.);
#220 = ORIENTED_EDGE('',*,*,#164,.F.);
#221 = B_SPLINE_SURFACE_WITH_KNOTS('',1,1,(
    (#222,#223)
    ,(#224,#225
    )),.UNSPECIFIED.,.F.,.F.,.F.,(2,2),(2,2),(-19.00692,19.00692),(
    -18.20192,18.17576),.PIECEWISE_BEZIER_KNOTS.);
#222 = CARTESIAN_POINT('',(-65.08679144428,12.176187685577,
    2.412189890193));
#223 = CARTESIAN_POINT('',(-65.08679144428,53.632820090943,
    2.412189890193));
#224 = CARTESIAN_POINT('',(-21.76556284486,12.176187685577,
    2.412189890193));
#225 = CARTESIAN_POINT('',(-21.76556284486,53.632820090943,
    2.412189890193));
#226 = ADVANCED_FACE('',(#227),#232,.F.);
#227 = FACE_BOUND('',#228,.T.);
#228 = EDGE_LOOP('',(#229,#230,#231));
#229 = ORIENTED_EDGE('',*,*,#21,.T.);
#230 = ORIENTED_EDGE('',*,*,#141,.T.);
#231 = ORIENTED_EDGE('',*,*,#113,.F.);
#232 = B_SPLINE_SURFACE_WITH_KNOTS('',1,1,(
    (#233,#234)
    ,(#235,#236
    )),.UNSPECIFIED.,.F.,.F.,.F.,(2,2),(2,2),(-19.00692,19.00692),(
    -18.20192,18.17576),.PIECEWISE_BEZIER_KNOTS.);
#233 = CARTESIAN_POINT('',(-65.08679144428,12.176187685577,0.));
#234 = CARTESIAN_POINT('',(-65.08679144428,53.632820090943,0.));
#235 = CARTESIAN_POINT('',(-21.76556284486,12.176187685577,0.));
#236 = CARTESIAN_POINT('',(-21.76556284486,53.632820090943,0.));
#237 = ( GEOMETRIC_REPRESENTATION_CONTEXT(3) 
GLOBAL_UNCERTAINTY_ASSIGNED_CONTEXT((#241)) GLOBAL_UNIT_ASSIGNED_CONTEXT
((#238,#239,#240)) REPRESENTATION_CONTEXT('Context #1',
  '3D Context with UNIT and UNCERTAINTY') );
#238 = ( LENGTH_UNIT() NAMED_UNIT(*) SI_UNIT(.MILLI.,.METRE.) );
#239 = ( NAMED_UNIT(*) PLANE_ANGLE_UNIT() SI_UNIT($,.RADIAN.) );
#240 = ( NAMED_UNIT(*) SI_UNIT($,.STERADIAN.) SOLID_ANGLE_UNIT() );
#241 = UNCERTAINTY_MEASURE_WITH_UNIT(LENGTH_MEASURE(5.E-03),#238,
  'distance_accuracy_value','confusion accuracy');
#242 = PRODUCT_RELATED_PRODUCT_CATEGORY('part',$,(#7));
ENDSEC;
END-ISO-10303-21;
