ISO-10303-21;
HEADER;
FILE_DESCRIPTION(('FreeCAD Model'),'2;1');
FILE_NAME('Open CASCADE Shape Model','2025-05-02T17:19:37',('FreeCAD'),(
    'FreeCAD'),'Open CASCADE STEP processor 7.6','FreeCAD','Unknown');
FILE_SCHEMA(('AUTOMOTIVE_DESIGN { 1 0 10303 214 1 1 1 1 }'));
ENDSEC;
DATA;
#1 = APPLICATION_PROTOCOL_DEFINITION('international standard',
  'automotive_design',2000,#2);
#2 = APPLICATION_CONTEXT(
  'core data for automotive mechanical design processes');
#3 = SHAPE_DEFINITION_REPRESENTATION(#4,#10);
#4 = PRODUCT_DEFINITION_SHAPE('','',#5);
#5 = PRODUCT_DEFINITION('design','',#6,#9);
#6 = PRODUCT_DEFINITION_FORMATION('','',#7);
#7 = PRODUCT('Open CASCADE STEP translator 7.6 1',
  'Open CASCADE STEP translator 7.6 1','',(#8));
#8 = PRODUCT_CONTEXT('',#2,'mechanical');
#9 = PRODUCT_DEFINITION_CONTEXT('part definition',#2,'design');
#10 = ADVANCED_BREP_SHAPE_REPRESENTATION('',(#11,#15),#413);
#11 = AXIS2_PLACEMENT_3D('',#12,#13,#14);
#12 = CARTESIAN_POINT('',(0.,0.,0.));
#13 = DIRECTION('',(0.,0.,1.));
#14 = DIRECTION('',(1.,0.,-0.));
#15 = MANIFOLD_SOLID_BREP('',#16);
#16 = CLOSED_SHELL('',(#17,#53,#81,#109,#125,#141,#177,#205,#227,#249,
    #265,#301,#335,#357,#385,#401));
#17 = ADVANCED_FACE('',(#18),#48,.T.);
#18 = FACE_BOUND('',#19,.T.);
#19 = EDGE_LOOP('',(#20,#29,#36,#43));
#20 = ORIENTED_EDGE('',*,*,#21,.T.);
#21 = EDGE_CURVE('',#22,#24,#26,.T.);
#22 = VERTEX_POINT('',#23);
#23 = CARTESIAN_POINT('',(-7.251181508141,16.919423518997,
    -1.510662814196));
#24 = VERTEX_POINT('',#25);
#25 = CARTESIAN_POINT('',(7.251181508141,16.919423518997,-1.510662814196
    ));
#26 = B_SPLINE_CURVE_WITH_KNOTS('',1,(#27,#28),.UNSPECIFIED.,.F.,.F.,(2,
    2),(0.,18.),.PIECEWISE_BEZIER_KNOTS.);
#27 = CARTESIAN_POINT('',(-7.251181508141,16.919423518997,
    -1.510662814196));
#28 = CARTESIAN_POINT('',(7.251181508141,16.919423518997,-1.510662814196
    ));
#29 = ORIENTED_EDGE('',*,*,#30,.T.);
#30 = EDGE_CURVE('',#24,#31,#33,.T.);
#31 = VERTEX_POINT('',#32);
#32 = CARTESIAN_POINT('',(7.251181508141,12.488145930688,-1.510662814196
    ));
#33 = B_SPLINE_CURVE_WITH_KNOTS('',1,(#34,#35),.UNSPECIFIED.,.F.,.F.,(2,
    2),(0.,5.5),.PIECEWISE_BEZIER_KNOTS.);
#34 = CARTESIAN_POINT('',(7.251181508141,16.919423518997,-1.510662814196
    ));
#35 = CARTESIAN_POINT('',(7.251181508141,12.488145930688,-1.510662814196
    ));
#36 = ORIENTED_EDGE('',*,*,#37,.F.);
#37 = EDGE_CURVE('',#38,#31,#40,.T.);
#38 = VERTEX_POINT('',#39);
#39 = CARTESIAN_POINT('',(-7.251181508141,12.488145930688,
    -1.510662814196));
#40 = B_SPLINE_CURVE_WITH_KNOTS('',1,(#41,#42),.UNSPECIFIED.,.F.,.F.,(2,
    2),(-14.25,3.75),.PIECEWISE_BEZIER_KNOTS.);
#41 = CARTESIAN_POINT('',(-7.251181508141,12.488145930688,
    -1.510662814196));
#42 = CARTESIAN_POINT('',(7.251181508141,12.488145930688,-1.510662814196
    ));
#43 = ORIENTED_EDGE('',*,*,#44,.T.);
#44 = EDGE_CURVE('',#38,#22,#45,.T.);
#45 = B_SPLINE_CURVE_WITH_KNOTS('',1,(#46,#47),.UNSPECIFIED.,.F.,.F.,(2,
    2),(0.,5.5),.PIECEWISE_BEZIER_KNOTS.);
#46 = CARTESIAN_POINT('',(-7.251181508141,12.488145930688,
    -1.510662814196));
#47 = CARTESIAN_POINT('',(-7.251181508141,16.919423518997,
    -1.510662814196));
#48 = B_SPLINE_SURFACE_WITH_KNOTS('',1,1,(
    (#49,#50)
    ,(#51,#52
    )),.UNSPECIFIED.,.F.,.F.,.F.,(2,2),(2,2),(-9.,9.),(-2.75,2.75),
  .PIECEWISE_BEZIER_KNOTS.);
#49 = CARTESIAN_POINT('',(7.251181508141,12.488145930688,-1.510662814196
    ));
#50 = CARTESIAN_POINT('',(7.251181508141,16.919423518997,-1.510662814196
    ));
#51 = CARTESIAN_POINT('',(-7.251181508141,12.488145930688,
    -1.510662814196));
#52 = CARTESIAN_POINT('',(-7.251181508141,16.919423518997,
    -1.510662814196));
#53 = ADVANCED_FACE('',(#54),#76,.T.);
#54 = FACE_BOUND('',#55,.T.);
#55 = EDGE_LOOP('',(#56,#63,#70,#75));
#56 = ORIENTED_EDGE('',*,*,#57,.F.);
#57 = EDGE_CURVE('',#58,#24,#60,.T.);
#58 = VERTEX_POINT('',#59);
#59 = CARTESIAN_POINT('',(7.251181508141,16.919423518997,1.510662814196)
  );
#60 = B_SPLINE_CURVE_WITH_KNOTS('',1,(#61,#62),.UNSPECIFIED.,.F.,.F.,(2,
    2),(-1.875,1.875),.PIECEWISE_BEZIER_KNOTS.);
#61 = CARTESIAN_POINT('',(7.251181508141,16.919423518997,1.510662814196)
  );
#62 = CARTESIAN_POINT('',(7.251181508141,16.919423518997,-1.510662814196
    ));
#63 = ORIENTED_EDGE('',*,*,#64,.F.);
#64 = EDGE_CURVE('',#65,#58,#67,.T.);
#65 = VERTEX_POINT('',#66);
#66 = CARTESIAN_POINT('',(7.251181508141,12.488145930688,1.510662814196)
  );
#67 = B_SPLINE_CURVE_WITH_KNOTS('',1,(#68,#69),.UNSPECIFIED.,.F.,.F.,(2,
    2),(-5.5,0.),.PIECEWISE_BEZIER_KNOTS.);
#68 = CARTESIAN_POINT('',(7.251181508141,12.488145930688,1.510662814196)
  );
#69 = CARTESIAN_POINT('',(7.251181508141,16.919423518997,1.510662814196)
  );
#70 = ORIENTED_EDGE('',*,*,#71,.F.);
#71 = EDGE_CURVE('',#31,#65,#72,.T.);
#72 = B_SPLINE_CURVE_WITH_KNOTS('',1,(#73,#74),.UNSPECIFIED.,.F.,.F.,(2,
    2),(-1.875,1.875),.PIECEWISE_BEZIER_KNOTS.);
#73 = CARTESIAN_POINT('',(7.251181508141,12.488145930688,-1.510662814196
    ));
#74 = CARTESIAN_POINT('',(7.251181508141,12.488145930688,1.510662814196)
  );
#75 = ORIENTED_EDGE('',*,*,#30,.F.);
#76 = B_SPLINE_SURFACE_WITH_KNOTS('',1,1,(
    (#77,#78)
    ,(#79,#80
    )),.UNSPECIFIED.,.F.,.F.,.F.,(2,2),(2,2),(0.,5.5),(-1.875,1.875),
  .PIECEWISE_BEZIER_KNOTS.);
#77 = CARTESIAN_POINT('',(7.251181508141,12.488145930688,-1.510662814196
    ));
#78 = CARTESIAN_POINT('',(7.251181508141,12.488145930688,1.510662814196)
  );
#79 = CARTESIAN_POINT('',(7.251181508141,16.919423518997,-1.510662814196
    ));
#80 = CARTESIAN_POINT('',(7.251181508141,16.919423518997,1.510662814196)
  );
#81 = ADVANCED_FACE('',(#82),#104,.T.);
#82 = FACE_BOUND('',#83,.T.);
#83 = EDGE_LOOP('',(#84,#91,#98,#103));
#84 = ORIENTED_EDGE('',*,*,#85,.F.);
#85 = EDGE_CURVE('',#86,#38,#88,.T.);
#86 = VERTEX_POINT('',#87);
#87 = CARTESIAN_POINT('',(-7.251181508141,12.488145930688,1.510662814196
    ));
#88 = B_SPLINE_CURVE_WITH_KNOTS('',1,(#89,#90),.UNSPECIFIED.,.F.,.F.,(2,
    2),(-1.875,1.875),.PIECEWISE_BEZIER_KNOTS.);
#89 = CARTESIAN_POINT('',(-7.251181508141,12.488145930688,1.510662814196
    ));
#90 = CARTESIAN_POINT('',(-7.251181508141,12.488145930688,
    -1.510662814196));
#91 = ORIENTED_EDGE('',*,*,#92,.F.);
#92 = EDGE_CURVE('',#93,#86,#95,.T.);
#93 = VERTEX_POINT('',#94);
#94 = CARTESIAN_POINT('',(-7.251181508141,16.919423518997,1.510662814196
    ));
#95 = B_SPLINE_CURVE_WITH_KNOTS('',1,(#96,#97),.UNSPECIFIED.,.F.,.F.,(2,
    2),(-5.5,0.),.PIECEWISE_BEZIER_KNOTS.);
#96 = CARTESIAN_POINT('',(-7.251181508141,16.919423518997,1.510662814196
    ));
#97 = CARTESIAN_POINT('',(-7.251181508141,12.488145930688,1.510662814196
    ));
#98 = ORIENTED_EDGE('',*,*,#99,.F.);
#99 = EDGE_CURVE('',#22,#93,#100,.T.);
#100 = B_SPLINE_CURVE_WITH_KNOTS('',1,(#101,#102),.UNSPECIFIED.,.F.,.F.,
  (2,2),(-1.875,1.875),.PIECEWISE_BEZIER_KNOTS.);
#101 = CARTESIAN_POINT('',(-7.251181508141,16.919423518997,
    -1.510662814196));
#102 = CARTESIAN_POINT('',(-7.251181508141,16.919423518997,
    1.510662814196));
#103 = ORIENTED_EDGE('',*,*,#44,.F.);
#104 = B_SPLINE_SURFACE_WITH_KNOTS('',1,1,(
    (#105,#106)
    ,(#107,#108
    )),.UNSPECIFIED.,.F.,.F.,.F.,(2,2),(2,2),(0.,5.5),(-1.875,1.875),
  .PIECEWISE_BEZIER_KNOTS.);
#105 = CARTESIAN_POINT('',(-7.251181508141,16.919423518997,
    -1.510662814196));
#106 = CARTESIAN_POINT('',(-7.251181508141,16.919423518997,
    1.510662814196));
#107 = CARTESIAN_POINT('',(-7.251181508141,12.488145930688,
    -1.510662814196));
#108 = CARTESIAN_POINT('',(-7.251181508141,12.488145930688,
    1.510662814196));
#109 = ADVANCED_FACE('',(#110),#120,.T.);
#110 = FACE_BOUND('',#111,.T.);
#111 = EDGE_LOOP('',(#112,#113,#118,#119));
#112 = ORIENTED_EDGE('',*,*,#99,.T.);
#113 = ORIENTED_EDGE('',*,*,#114,.F.);
#114 = EDGE_CURVE('',#58,#93,#115,.T.);
#115 = B_SPLINE_CURVE_WITH_KNOTS('',1,(#116,#117),.UNSPECIFIED.,.F.,.F.,
  (2,2),(-18.,0.),.PIECEWISE_BEZIER_KNOTS.);
#116 = CARTESIAN_POINT('',(7.251181508141,16.919423518997,1.510662814196
    ));
#117 = CARTESIAN_POINT('',(-7.251181508141,16.919423518997,
    1.510662814196));
#118 = ORIENTED_EDGE('',*,*,#57,.T.);
#119 = ORIENTED_EDGE('',*,*,#21,.F.);
#120 = B_SPLINE_SURFACE_WITH_KNOTS('',1,1,(
    (#121,#122)
    ,(#123,#124
    )),.UNSPECIFIED.,.F.,.F.,.F.,(2,2),(2,2),(0.,18.),(-1.875,1.875),
  .PIECEWISE_BEZIER_KNOTS.);
#121 = CARTESIAN_POINT('',(7.251181508141,16.919423518997,
    -1.510662814196));
#122 = CARTESIAN_POINT('',(7.251181508141,16.919423518997,1.510662814196
    ));
#123 = CARTESIAN_POINT('',(-7.251181508141,16.919423518997,
    -1.510662814196));
#124 = CARTESIAN_POINT('',(-7.251181508141,16.919423518997,
    1.510662814196));
#125 = ADVANCED_FACE('',(#126),#136,.T.);
#126 = FACE_BOUND('',#127,.T.);
#127 = EDGE_LOOP('',(#128,#129,#130,#135));
#128 = ORIENTED_EDGE('',*,*,#114,.T.);
#129 = ORIENTED_EDGE('',*,*,#92,.T.);
#130 = ORIENTED_EDGE('',*,*,#131,.F.);
#131 = EDGE_CURVE('',#65,#86,#132,.T.);
#132 = B_SPLINE_CURVE_WITH_KNOTS('',1,(#133,#134),.UNSPECIFIED.,.F.,.F.,
  (2,2),(-3.75,14.25),.PIECEWISE_BEZIER_KNOTS.);
#133 = CARTESIAN_POINT('',(7.251181508141,12.488145930688,1.510662814196
    ));
#134 = CARTESIAN_POINT('',(-7.251181508141,12.488145930688,
    1.510662814196));
#135 = ORIENTED_EDGE('',*,*,#64,.T.);
#136 = B_SPLINE_SURFACE_WITH_KNOTS('',1,1,(
    (#137,#138)
    ,(#139,#140
    )),.UNSPECIFIED.,.F.,.F.,.F.,(2,2),(2,2),(-9.,9.),(-2.75,2.75),
  .PIECEWISE_BEZIER_KNOTS.);
#137 = CARTESIAN_POINT('',(-7.251181508141,12.488145930688,
    1.510662814196));
#138 = CARTESIAN_POINT('',(-7.251181508141,16.919423518997,
    1.510662814196));
#139 = CARTESIAN_POINT('',(7.251181508141,12.488145930688,1.510662814196
    ));
#140 = CARTESIAN_POINT('',(7.251181508141,16.919423518997,1.510662814196
    ));
#141 = ADVANCED_FACE('',(#142),#172,.T.);
#142 = FACE_BOUND('',#143,.T.);
#143 = EDGE_LOOP('',(#144,#153,#160,#167));
#144 = ORIENTED_EDGE('',*,*,#145,.T.);
#145 = EDGE_CURVE('',#146,#148,#150,.T.);
#146 = VERTEX_POINT('',#147);
#147 = CARTESIAN_POINT('',(-7.251181508141,-16.91942351899,
    -1.510662814196));
#148 = VERTEX_POINT('',#149);
#149 = CARTESIAN_POINT('',(-7.251181508141,-12.48814593068,
    -1.510662814196));
#150 = B_SPLINE_CURVE_WITH_KNOTS('',1,(#151,#152),.UNSPECIFIED.,.F.,.F.,
  (2,2),(-5.5,0.),.PIECEWISE_BEZIER_KNOTS.);
#151 = CARTESIAN_POINT('',(-7.251181508141,-16.91942351899,
    -1.510662814196));
#152 = CARTESIAN_POINT('',(-7.251181508141,-12.48814593068,
    -1.510662814196));
#153 = ORIENTED_EDGE('',*,*,#154,.F.);
#154 = EDGE_CURVE('',#155,#148,#157,.T.);
#155 = VERTEX_POINT('',#156);
#156 = CARTESIAN_POINT('',(7.251181508141,-12.48814593068,
    -1.510662814196));
#157 = B_SPLINE_CURVE_WITH_KNOTS('',1,(#158,#159),.UNSPECIFIED.,.F.,.F.,
  (2,2),(-14.25,3.75),.PIECEWISE_BEZIER_KNOTS.);
#158 = CARTESIAN_POINT('',(7.251181508141,-12.48814593068,
    -1.510662814196));
#159 = CARTESIAN_POINT('',(-7.251181508141,-12.48814593068,
    -1.510662814196));
#160 = ORIENTED_EDGE('',*,*,#161,.T.);
#161 = EDGE_CURVE('',#155,#162,#164,.T.);
#162 = VERTEX_POINT('',#163);
#163 = CARTESIAN_POINT('',(7.251181508141,-16.91942351899,
    -1.510662814196));
#164 = B_SPLINE_CURVE_WITH_KNOTS('',1,(#165,#166),.UNSPECIFIED.,.F.,.F.,
  (2,2),(-5.5,0.),.PIECEWISE_BEZIER_KNOTS.);
#165 = CARTESIAN_POINT('',(7.251181508141,-12.48814593068,
    -1.510662814196));
#166 = CARTESIAN_POINT('',(7.251181508141,-16.91942351899,
    -1.510662814196));
#167 = ORIENTED_EDGE('',*,*,#168,.T.);
#168 = EDGE_CURVE('',#162,#146,#169,.T.);
#169 = B_SPLINE_CURVE_WITH_KNOTS('',1,(#170,#171),.UNSPECIFIED.,.F.,.F.,
  (2,2),(-18.,0.),.PIECEWISE_BEZIER_KNOTS.);
#170 = CARTESIAN_POINT('',(7.251181508141,-16.91942351899,
    -1.510662814196));
#171 = CARTESIAN_POINT('',(-7.251181508141,-16.91942351899,
    -1.510662814196));
#172 = B_SPLINE_SURFACE_WITH_KNOTS('',1,1,(
    (#173,#174)
    ,(#175,#176
    )),.UNSPECIFIED.,.F.,.F.,.F.,(2,2),(2,2),(-9.,9.),(-2.75,2.75),
  .PIECEWISE_BEZIER_KNOTS.);
#173 = CARTESIAN_POINT('',(7.251181508141,-16.91942351899,
    -1.510662814196));
#174 = CARTESIAN_POINT('',(7.251181508141,-12.48814593068,
    -1.510662814196));
#175 = CARTESIAN_POINT('',(-7.251181508141,-16.91942351899,
    -1.510662814196));
#176 = CARTESIAN_POINT('',(-7.251181508141,-12.48814593068,
    -1.510662814196));
#177 = ADVANCED_FACE('',(#178),#200,.T.);
#178 = FACE_BOUND('',#179,.T.);
#179 = EDGE_LOOP('',(#180,#187,#194,#199));
#180 = ORIENTED_EDGE('',*,*,#181,.F.);
#181 = EDGE_CURVE('',#182,#155,#184,.T.);
#182 = VERTEX_POINT('',#183);
#183 = CARTESIAN_POINT('',(7.251181508141,-12.48814593068,1.510662814196
    ));
#184 = B_SPLINE_CURVE_WITH_KNOTS('',1,(#185,#186),.UNSPECIFIED.,.F.,.F.,
  (2,2),(-1.875,1.875),.PIECEWISE_BEZIER_KNOTS.);
#185 = CARTESIAN_POINT('',(7.251181508141,-12.48814593068,1.510662814196
    ));
#186 = CARTESIAN_POINT('',(7.251181508141,-12.48814593068,
    -1.510662814196));
#187 = ORIENTED_EDGE('',*,*,#188,.F.);
#188 = EDGE_CURVE('',#189,#182,#191,.T.);
#189 = VERTEX_POINT('',#190);
#190 = CARTESIAN_POINT('',(7.251181508141,-16.91942351899,1.510662814196
    ));
#191 = B_SPLINE_CURVE_WITH_KNOTS('',1,(#192,#193),.UNSPECIFIED.,.F.,.F.,
  (2,2),(0.,5.5),.PIECEWISE_BEZIER_KNOTS.);
#192 = CARTESIAN_POINT('',(7.251181508141,-16.91942351899,1.510662814196
    ));
#193 = CARTESIAN_POINT('',(7.251181508141,-12.48814593068,1.510662814196
    ));
#194 = ORIENTED_EDGE('',*,*,#195,.F.);
#195 = EDGE_CURVE('',#162,#189,#196,.T.);
#196 = B_SPLINE_CURVE_WITH_KNOTS('',1,(#197,#198),.UNSPECIFIED.,.F.,.F.,
  (2,2),(-1.875,1.875),.PIECEWISE_BEZIER_KNOTS.);
#197 = CARTESIAN_POINT('',(7.251181508141,-16.91942351899,
    -1.510662814196));
#198 = CARTESIAN_POINT('',(7.251181508141,-16.91942351899,1.510662814196
    ));
#199 = ORIENTED_EDGE('',*,*,#161,.F.);
#200 = B_SPLINE_SURFACE_WITH_KNOTS('',1,1,(
    (#201,#202)
    ,(#203,#204
    )),.UNSPECIFIED.,.F.,.F.,.F.,(2,2),(2,2),(0.,5.5),(-1.875,1.875),
  .PIECEWISE_BEZIER_KNOTS.);
#201 = CARTESIAN_POINT('',(7.251181508141,-16.91942351899,
    -1.510662814196));
#202 = CARTESIAN_POINT('',(7.251181508141,-16.91942351899,1.510662814196
    ));
#203 = CARTESIAN_POINT('',(7.251181508141,-12.48814593068,
    -1.510662814196));
#204 = CARTESIAN_POINT('',(7.251181508141,-12.48814593068,1.510662814196
    ));
#205 = ADVANCED_FACE('',(#206),#222,.T.);
#206 = FACE_BOUND('',#207,.T.);
#207 = EDGE_LOOP('',(#208,#209,#216,#221));
#208 = ORIENTED_EDGE('',*,*,#195,.T.);
#209 = ORIENTED_EDGE('',*,*,#210,.F.);
#210 = EDGE_CURVE('',#211,#189,#213,.T.);
#211 = VERTEX_POINT('',#212);
#212 = CARTESIAN_POINT('',(-7.251181508141,-16.91942351899,
    1.510662814196));
#213 = B_SPLINE_CURVE_WITH_KNOTS('',1,(#214,#215),.UNSPECIFIED.,.F.,.F.,
  (2,2),(0.,18.),.PIECEWISE_BEZIER_KNOTS.);
#214 = CARTESIAN_POINT('',(-7.251181508141,-16.91942351899,
    1.510662814196));
#215 = CARTESIAN_POINT('',(7.251181508141,-16.91942351899,1.510662814196
    ));
#216 = ORIENTED_EDGE('',*,*,#217,.F.);
#217 = EDGE_CURVE('',#146,#211,#218,.T.);
#218 = B_SPLINE_CURVE_WITH_KNOTS('',1,(#219,#220),.UNSPECIFIED.,.F.,.F.,
  (2,2),(-1.875,1.875),.PIECEWISE_BEZIER_KNOTS.);
#219 = CARTESIAN_POINT('',(-7.251181508141,-16.91942351899,
    -1.510662814196));
#220 = CARTESIAN_POINT('',(-7.251181508141,-16.91942351899,
    1.510662814196));
#221 = ORIENTED_EDGE('',*,*,#168,.F.);
#222 = B_SPLINE_SURFACE_WITH_KNOTS('',1,1,(
    (#223,#224)
    ,(#225,#226
    )),.UNSPECIFIED.,.F.,.F.,.F.,(2,2),(2,2),(0.,18.),(-1.875,1.875),
  .PIECEWISE_BEZIER_KNOTS.);
#223 = CARTESIAN_POINT('',(-7.251181508141,-16.91942351899,
    -1.510662814196));
#224 = CARTESIAN_POINT('',(-7.251181508141,-16.91942351899,
    1.510662814196));
#225 = CARTESIAN_POINT('',(7.251181508141,-16.91942351899,
    -1.510662814196));
#226 = CARTESIAN_POINT('',(7.251181508141,-16.91942351899,1.510662814196
    ));
#227 = ADVANCED_FACE('',(#228),#244,.T.);
#228 = FACE_BOUND('',#229,.T.);
#229 = EDGE_LOOP('',(#230,#231,#238,#243));
#230 = ORIENTED_EDGE('',*,*,#217,.T.);
#231 = ORIENTED_EDGE('',*,*,#232,.F.);
#232 = EDGE_CURVE('',#233,#211,#235,.T.);
#233 = VERTEX_POINT('',#234);
#234 = CARTESIAN_POINT('',(-7.251181508141,-12.48814593068,
    1.510662814196));
#235 = B_SPLINE_CURVE_WITH_KNOTS('',1,(#236,#237),.UNSPECIFIED.,.F.,.F.,
  (2,2),(0.,5.5),.PIECEWISE_BEZIER_KNOTS.);
#236 = CARTESIAN_POINT('',(-7.251181508141,-12.48814593068,
    1.510662814196));
#237 = CARTESIAN_POINT('',(-7.251181508141,-16.91942351899,
    1.510662814196));
#238 = ORIENTED_EDGE('',*,*,#239,.F.);
#239 = EDGE_CURVE('',#148,#233,#240,.T.);
#240 = B_SPLINE_CURVE_WITH_KNOTS('',1,(#241,#242),.UNSPECIFIED.,.F.,.F.,
  (2,2),(-1.875,1.875),.PIECEWISE_BEZIER_KNOTS.);
#241 = CARTESIAN_POINT('',(-7.251181508141,-12.48814593068,
    -1.510662814196));
#242 = CARTESIAN_POINT('',(-7.251181508141,-12.48814593068,
    1.510662814196));
#243 = ORIENTED_EDGE('',*,*,#145,.F.);
#244 = B_SPLINE_SURFACE_WITH_KNOTS('',1,1,(
    (#245,#246)
    ,(#247,#248
    )),.UNSPECIFIED.,.F.,.F.,.F.,(2,2),(2,2),(0.,5.5),(-1.875,1.875),
  .PIECEWISE_BEZIER_KNOTS.);
#245 = CARTESIAN_POINT('',(-7.251181508141,-12.48814593068,
    -1.510662814196));
#246 = CARTESIAN_POINT('',(-7.251181508141,-12.48814593068,
    1.510662814196));
#247 = CARTESIAN_POINT('',(-7.251181508141,-16.91942351899,
    -1.510662814196));
#248 = CARTESIAN_POINT('',(-7.251181508141,-16.91942351899,
    1.510662814196));
#249 = ADVANCED_FACE('',(#250),#260,.T.);
#250 = FACE_BOUND('',#251,.T.);
#251 = EDGE_LOOP('',(#252,#253,#254,#255));
#252 = ORIENTED_EDGE('',*,*,#232,.T.);
#253 = ORIENTED_EDGE('',*,*,#210,.T.);
#254 = ORIENTED_EDGE('',*,*,#188,.T.);
#255 = ORIENTED_EDGE('',*,*,#256,.F.);
#256 = EDGE_CURVE('',#233,#182,#257,.T.);
#257 = B_SPLINE_CURVE_WITH_KNOTS('',1,(#258,#259),.UNSPECIFIED.,.F.,.F.,
  (2,2),(-3.75,14.25),.PIECEWISE_BEZIER_KNOTS.);
#258 = CARTESIAN_POINT('',(-7.251181508141,-12.48814593068,
    1.510662814196));
#259 = CARTESIAN_POINT('',(7.251181508141,-12.48814593068,1.510662814196
    ));
#260 = B_SPLINE_SURFACE_WITH_KNOTS('',1,1,(
    (#261,#262)
    ,(#263,#264
    )),.UNSPECIFIED.,.F.,.F.,.F.,(2,2),(2,2),(-9.,9.),(-2.75,2.75),
  .PIECEWISE_BEZIER_KNOTS.);
#261 = CARTESIAN_POINT('',(-7.251181508141,-16.91942351899,
    1.510662814196));
#262 = CARTESIAN_POINT('',(-7.251181508141,-12.48814593068,
    1.510662814196));
#263 = CARTESIAN_POINT('',(7.251181508141,-16.91942351899,1.510662814196
    ));
#264 = CARTESIAN_POINT('',(7.251181508141,-12.48814593068,1.510662814196
    ));
#265 = ADVANCED_FACE('',(#266),#296,.T.);
#266 = FACE_BOUND('',#267,.T.);
#267 = EDGE_LOOP('',(#268,#277,#284,#291));
#268 = ORIENTED_EDGE('',*,*,#269,.T.);
#269 = EDGE_CURVE('',#270,#272,#274,.T.);
#270 = VERTEX_POINT('',#271);
#271 = CARTESIAN_POINT('',(8.459711759498,12.488145930688,
    -3.021325628392));
#272 = VERTEX_POINT('',#273);
#273 = CARTESIAN_POINT('',(8.459711759498,-12.48814593068,
    -3.021325628392));
#274 = B_SPLINE_CURVE_WITH_KNOTS('',1,(#275,#276),.UNSPECIFIED.,.F.,.F.,
  (2,2),(-31.,0.),.PIECEWISE_BEZIER_KNOTS.);
#275 = CARTESIAN_POINT('',(8.459711759498,12.488145930688,
    -3.021325628392));
#276 = CARTESIAN_POINT('',(8.459711759498,-12.48814593068,
    -3.021325628392));
#277 = ORIENTED_EDGE('',*,*,#278,.T.);
#278 = EDGE_CURVE('',#272,#279,#281,.T.);
#279 = VERTEX_POINT('',#280);
#280 = CARTESIAN_POINT('',(-8.459711759498,-12.48814593068,
    -3.021325628392));
#281 = B_SPLINE_CURVE_WITH_KNOTS('',1,(#282,#283),.UNSPECIFIED.,.F.,.F.,
  (2,2),(-21.,0.),.PIECEWISE_BEZIER_KNOTS.);
#282 = CARTESIAN_POINT('',(8.459711759498,-12.48814593068,
    -3.021325628392));
#283 = CARTESIAN_POINT('',(-8.459711759498,-12.48814593068,
    -3.021325628392));
#284 = ORIENTED_EDGE('',*,*,#285,.T.);
#285 = EDGE_CURVE('',#279,#286,#288,.T.);
#286 = VERTEX_POINT('',#287);
#287 = CARTESIAN_POINT('',(-8.459711759498,12.488145930688,
    -3.021325628392));
#288 = B_SPLINE_CURVE_WITH_KNOTS('',1,(#289,#290),.UNSPECIFIED.,.F.,.F.,
  (2,2),(-31.,0.),.PIECEWISE_BEZIER_KNOTS.);
#289 = CARTESIAN_POINT('',(-8.459711759498,-12.48814593068,
    -3.021325628392));
#290 = CARTESIAN_POINT('',(-8.459711759498,12.488145930688,
    -3.021325628392));
#291 = ORIENTED_EDGE('',*,*,#292,.T.);
#292 = EDGE_CURVE('',#286,#270,#293,.T.);
#293 = B_SPLINE_CURVE_WITH_KNOTS('',1,(#294,#295),.UNSPECIFIED.,.F.,.F.,
  (2,2),(-21.,0.),.PIECEWISE_BEZIER_KNOTS.);
#294 = CARTESIAN_POINT('',(-8.459711759498,12.488145930688,
    -3.021325628392));
#295 = CARTESIAN_POINT('',(8.459711759498,12.488145930688,
    -3.021325628392));
#296 = B_SPLINE_SURFACE_WITH_KNOTS('',1,1,(
    (#297,#298)
    ,(#299,#300
    )),.UNSPECIFIED.,.F.,.F.,.F.,(2,2),(2,2),(-10.5,10.5),(-15.5,15.5),
  .PIECEWISE_BEZIER_KNOTS.);
#297 = CARTESIAN_POINT('',(8.459711759498,-12.48814593068,
    -3.021325628392));
#298 = CARTESIAN_POINT('',(8.459711759498,12.488145930688,
    -3.021325628392));
#299 = CARTESIAN_POINT('',(-8.459711759498,-12.48814593068,
    -3.021325628392));
#300 = CARTESIAN_POINT('',(-8.459711759498,12.488145930688,
    -3.021325628392));
#301 = ADVANCED_FACE('',(#302,#324),#330,.T.);
#302 = FACE_BOUND('',#303,.T.);
#303 = EDGE_LOOP('',(#304,#311,#318,#323));
#304 = ORIENTED_EDGE('',*,*,#305,.F.);
#305 = EDGE_CURVE('',#306,#272,#308,.T.);
#306 = VERTEX_POINT('',#307);
#307 = CARTESIAN_POINT('',(8.459711759498,-12.48814593068,3.021325628392
    ));
#308 = B_SPLINE_CURVE_WITH_KNOTS('',1,(#309,#310),.UNSPECIFIED.,.F.,.F.,
  (2,2),(-3.75,3.75),.PIECEWISE_BEZIER_KNOTS.);
#309 = CARTESIAN_POINT('',(8.459711759498,-12.48814593068,3.021325628392
    ));
#310 = CARTESIAN_POINT('',(8.459711759498,-12.48814593068,
    -3.021325628392));
#311 = ORIENTED_EDGE('',*,*,#312,.F.);
#312 = EDGE_CURVE('',#313,#306,#315,.T.);
#313 = VERTEX_POINT('',#314);
#314 = CARTESIAN_POINT('',(-8.459711759498,-12.48814593068,
    3.021325628392));
#315 = B_SPLINE_CURVE_WITH_KNOTS('',1,(#316,#317),.UNSPECIFIED.,.F.,.F.,
  (2,2),(0.,21.),.PIECEWISE_BEZIER_KNOTS.);
#316 = CARTESIAN_POINT('',(-8.459711759498,-12.48814593068,
    3.021325628392));
#317 = CARTESIAN_POINT('',(8.459711759498,-12.48814593068,3.021325628392
    ));
#318 = ORIENTED_EDGE('',*,*,#319,.F.);
#319 = EDGE_CURVE('',#279,#313,#320,.T.);
#320 = B_SPLINE_CURVE_WITH_KNOTS('',1,(#321,#322),.UNSPECIFIED.,.F.,.F.,
  (2,2),(-3.75,3.75),.PIECEWISE_BEZIER_KNOTS.);
#321 = CARTESIAN_POINT('',(-8.459711759498,-12.48814593068,
    -3.021325628392));
#322 = CARTESIAN_POINT('',(-8.459711759498,-12.48814593068,
    3.021325628392));
#323 = ORIENTED_EDGE('',*,*,#278,.F.);
#324 = FACE_BOUND('',#325,.T.);
#325 = EDGE_LOOP('',(#326,#327,#328,#329));
#326 = ORIENTED_EDGE('',*,*,#154,.T.);
#327 = ORIENTED_EDGE('',*,*,#239,.T.);
#328 = ORIENTED_EDGE('',*,*,#256,.T.);
#329 = ORIENTED_EDGE('',*,*,#181,.T.);
#330 = B_SPLINE_SURFACE_WITH_KNOTS('',1,1,(
    (#331,#332)
    ,(#333,#334
    )),.UNSPECIFIED.,.F.,.F.,.F.,(2,2),(2,2),(0.,21.),(-3.75,3.75),
  .PIECEWISE_BEZIER_KNOTS.);
#331 = CARTESIAN_POINT('',(-8.459711759498,-12.48814593068,
    -3.021325628392));
#332 = CARTESIAN_POINT('',(-8.459711759498,-12.48814593068,
    3.021325628392));
#333 = CARTESIAN_POINT('',(8.459711759498,-12.48814593068,
    -3.021325628392));
#334 = CARTESIAN_POINT('',(8.459711759498,-12.48814593068,3.021325628392
    ));
#335 = ADVANCED_FACE('',(#336),#352,.T.);
#336 = FACE_BOUND('',#337,.T.);
#337 = EDGE_LOOP('',(#338,#339,#346,#351));
#338 = ORIENTED_EDGE('',*,*,#319,.T.);
#339 = ORIENTED_EDGE('',*,*,#340,.F.);
#340 = EDGE_CURVE('',#341,#313,#343,.T.);
#341 = VERTEX_POINT('',#342);
#342 = CARTESIAN_POINT('',(-8.459711759498,12.488145930688,
    3.021325628392));
#343 = B_SPLINE_CURVE_WITH_KNOTS('',1,(#344,#345),.UNSPECIFIED.,.F.,.F.,
  (2,2),(0.,31.),.PIECEWISE_BEZIER_KNOTS.);
#344 = CARTESIAN_POINT('',(-8.459711759498,12.488145930688,
    3.021325628392));
#345 = CARTESIAN_POINT('',(-8.459711759498,-12.48814593068,
    3.021325628392));
#346 = ORIENTED_EDGE('',*,*,#347,.F.);
#347 = EDGE_CURVE('',#286,#341,#348,.T.);
#348 = B_SPLINE_CURVE_WITH_KNOTS('',1,(#349,#350),.UNSPECIFIED.,.F.,.F.,
  (2,2),(-3.75,3.75),.PIECEWISE_BEZIER_KNOTS.);
#349 = CARTESIAN_POINT('',(-8.459711759498,12.488145930688,
    -3.021325628392));
#350 = CARTESIAN_POINT('',(-8.459711759498,12.488145930688,
    3.021325628392));
#351 = ORIENTED_EDGE('',*,*,#285,.F.);
#352 = B_SPLINE_SURFACE_WITH_KNOTS('',1,1,(
    (#353,#354)
    ,(#355,#356
    )),.UNSPECIFIED.,.F.,.F.,.F.,(2,2),(2,2),(0.,31.),(-3.75,3.75),
  .PIECEWISE_BEZIER_KNOTS.);
#353 = CARTESIAN_POINT('',(-8.459711759498,12.488145930688,
    -3.021325628392));
#354 = CARTESIAN_POINT('',(-8.459711759498,12.488145930688,
    3.021325628392));
#355 = CARTESIAN_POINT('',(-8.459711759498,-12.48814593068,
    -3.021325628392));
#356 = CARTESIAN_POINT('',(-8.459711759498,-12.48814593068,
    3.021325628392));
#357 = ADVANCED_FACE('',(#358,#374),#380,.T.);
#358 = FACE_BOUND('',#359,.T.);
#359 = EDGE_LOOP('',(#360,#361,#368,#373));
#360 = ORIENTED_EDGE('',*,*,#347,.T.);
#361 = ORIENTED_EDGE('',*,*,#362,.F.);
#362 = EDGE_CURVE('',#363,#341,#365,.T.);
#363 = VERTEX_POINT('',#364);
#364 = CARTESIAN_POINT('',(8.459711759498,12.488145930688,3.021325628392
    ));
#365 = B_SPLINE_CURVE_WITH_KNOTS('',1,(#366,#367),.UNSPECIFIED.,.F.,.F.,
  (2,2),(0.,21.),.PIECEWISE_BEZIER_KNOTS.);
#366 = CARTESIAN_POINT('',(8.459711759498,12.488145930688,3.021325628392
    ));
#367 = CARTESIAN_POINT('',(-8.459711759498,12.488145930688,
    3.021325628392));
#368 = ORIENTED_EDGE('',*,*,#369,.F.);
#369 = EDGE_CURVE('',#270,#363,#370,.T.);
#370 = B_SPLINE_CURVE_WITH_KNOTS('',1,(#371,#372),.UNSPECIFIED.,.F.,.F.,
  (2,2),(-3.75,3.75),.PIECEWISE_BEZIER_KNOTS.);
#371 = CARTESIAN_POINT('',(8.459711759498,12.488145930688,
    -3.021325628392));
#372 = CARTESIAN_POINT('',(8.459711759498,12.488145930688,3.021325628392
    ));
#373 = ORIENTED_EDGE('',*,*,#292,.F.);
#374 = FACE_BOUND('',#375,.T.);
#375 = EDGE_LOOP('',(#376,#377,#378,#379));
#376 = ORIENTED_EDGE('',*,*,#37,.T.);
#377 = ORIENTED_EDGE('',*,*,#71,.T.);
#378 = ORIENTED_EDGE('',*,*,#131,.T.);
#379 = ORIENTED_EDGE('',*,*,#85,.T.);
#380 = B_SPLINE_SURFACE_WITH_KNOTS('',1,1,(
    (#381,#382)
    ,(#383,#384
    )),.UNSPECIFIED.,.F.,.F.,.F.,(2,2),(2,2),(0.,21.),(-3.75,3.75),
  .PIECEWISE_BEZIER_KNOTS.);
#381 = CARTESIAN_POINT('',(8.459711759498,12.488145930688,
    -3.021325628392));
#382 = CARTESIAN_POINT('',(8.459711759498,12.488145930688,3.021325628392
    ));
#383 = CARTESIAN_POINT('',(-8.459711759498,12.488145930688,
    -3.021325628392));
#384 = CARTESIAN_POINT('',(-8.459711759498,12.488145930688,
    3.021325628392));
#385 = ADVANCED_FACE('',(#386),#396,.T.);
#386 = FACE_BOUND('',#387,.T.);
#387 = EDGE_LOOP('',(#388,#389,#394,#395));
#388 = ORIENTED_EDGE('',*,*,#369,.T.);
#389 = ORIENTED_EDGE('',*,*,#390,.F.);
#390 = EDGE_CURVE('',#306,#363,#391,.T.);
#391 = B_SPLINE_CURVE_WITH_KNOTS('',1,(#392,#393),.UNSPECIFIED.,.F.,.F.,
  (2,2),(0.,31.),.PIECEWISE_BEZIER_KNOTS.);
#392 = CARTESIAN_POINT('',(8.459711759498,-12.48814593068,3.021325628392
    ));
#393 = CARTESIAN_POINT('',(8.459711759498,12.488145930688,3.021325628392
    ));
#394 = ORIENTED_EDGE('',*,*,#305,.T.);
#395 = ORIENTED_EDGE('',*,*,#269,.F.);
#396 = B_SPLINE_SURFACE_WITH_KNOTS('',1,1,(
    (#397,#398)
    ,(#399,#400
    )),.UNSPECIFIED.,.F.,.F.,.F.,(2,2),(2,2),(0.,31.),(-3.75,3.75),
  .PIECEWISE_BEZIER_KNOTS.);
#397 = CARTESIAN_POINT('',(8.459711759498,-12.48814593068,
    -3.021325628392));
#398 = CARTESIAN_POINT('',(8.459711759498,-12.48814593068,3.021325628392
    ));
#399 = CARTESIAN_POINT('',(8.459711759498,12.488145930688,
    -3.021325628392));
#400 = CARTESIAN_POINT('',(8.459711759498,12.488145930688,3.021325628392
    ));
#401 = ADVANCED_FACE('',(#402),#408,.T.);
#402 = FACE_BOUND('',#403,.T.);
#403 = EDGE_LOOP('',(#404,#405,#406,#407));
#404 = ORIENTED_EDGE('',*,*,#390,.T.);
#405 = ORIENTED_EDGE('',*,*,#362,.T.);
#406 = ORIENTED_EDGE('',*,*,#340,.T.);
#407 = ORIENTED_EDGE('',*,*,#312,.T.);
#408 = B_SPLINE_SURFACE_WITH_KNOTS('',1,1,(
    (#409,#410)
    ,(#411,#412
    )),.UNSPECIFIED.,.F.,.F.,.F.,(2,2),(2,2),(-10.5,10.5),(-15.5,15.5),
  .PIECEWISE_BEZIER_KNOTS.);
#409 = CARTESIAN_POINT('',(-8.459711759498,-12.48814593068,
    3.021325628392));
#410 = CARTESIAN_POINT('',(-8.459711759498,12.488145930688,
    3.021325628392));
#411 = CARTESIAN_POINT('',(8.459711759498,-12.48814593068,3.021325628392
    ));
#412 = CARTESIAN_POINT('',(8.459711759498,12.488145930688,3.021325628392
    ));
#413 = ( GEOMETRIC_REPRESENTATION_CONTEXT(3) 
GLOBAL_UNCERTAINTY_ASSIGNED_CONTEXT((#417)) GLOBAL_UNIT_ASSIGNED_CONTEXT
((#414,#415,#416)) REPRESENTATION_CONTEXT('Context #1',
  '3D Context with UNIT and UNCERTAINTY') );
#414 = ( LENGTH_UNIT() NAMED_UNIT(*) SI_UNIT(.MILLI.,.METRE.) );
#415 = ( NAMED_UNIT(*) PLANE_ANGLE_UNIT() SI_UNIT($,.RADIAN.) );
#416 = ( NAMED_UNIT(*) SI_UNIT($,.STERADIAN.) SOLID_ANGLE_UNIT() );
#417 = UNCERTAINTY_MEASURE_WITH_UNIT(LENGTH_MEASURE(1.E-07),#414,
  'distance_accuracy_value','confusion accuracy');
#418 = PRODUCT_RELATED_PRODUCT_CATEGORY('part',$,(#7));
ENDSEC;
END-ISO-10303-21;
