ISO-10303-21;
HEADER;
FILE_DESCRIPTION(('FreeCAD Model'),'2;1');
FILE_NAME('Open CASCADE Shape Model','2025-05-02T16:14:57',('FreeCAD'),(
    'FreeCAD'),'Open CASCADE STEP processor 7.6','FreeCAD','Unknown');
FILE_SCHEMA(('AUTOMOTIVE_DESIGN { 1 0 10303 214 1 1 1 1 }'));
ENDSEC;
DATA;
#1 = APPLICATION_PROTOCOL_DEFINITION('international standard',
  'automotive_design',2000,#2);
#2 = APPLICATION_CONTEXT(
  'core data for automotive mechanical design processes');
#3 = SHAPE_DEFINITION_REPRESENTATION(#4,#10);
#4 = PRODUCT_DEFINITION_SHAPE('','',#5);
#5 = PRODUCT_DEFINITION('design','',#6,#9);
#6 = PRODUCT_DEFINITION_FORMATION('','',#7);
#7 = PRODUCT('Open CASCADE STEP translator 7.6 1',
  'Open CASCADE STEP translator 7.6 1','',(#8));
#8 = PRODUCT_CONTEXT('',#2,'mechanical');
#9 = PRODUCT_DEFINITION_CONTEXT('part definition',#2,'design');
#10 = ADVANCED_BREP_SHAPE_REPRESENTATION('',(#11,#15),#203);
#11 = AXIS2_PLACEMENT_3D('',#12,#13,#14);
#12 = CARTESIAN_POINT('',(0.,0.,0.));
#13 = DIRECTION('',(0.,0.,1.));
#14 = DIRECTION('',(1.,0.,-0.));
#15 = MANIFOLD_SOLID_BREP('',#16);
#16 = CLOSED_SHELL('',(#17,#65,#88,#111,#148,#185,#194));
#17 = ADVANCED_FACE('',(#18),#50,.T.);
#18 = FACE_BOUND('',#19,.T.);
#19 = EDGE_LOOP('',(#20,#32,#39,#49));
#20 = ORIENTED_EDGE('',*,*,#21,.T.);
#21 = EDGE_CURVE('',#22,#22,#24,.T.);
#22 = VERTEX_POINT('',#23);
#23 = CARTESIAN_POINT('',(2.527130846701,0.,0.));
#24 = ( BOUNDED_CURVE() B_SPLINE_CURVE(2,(#25,#26,#27,#28,#29,#30,#31),
.UNSPECIFIED.,.T.,.F.) B_SPLINE_CURVE_WITH_KNOTS((1,2,2,2,2,1),(
    -2.094395102393,0.,2.094395102393,4.188790204786,6.28318530718,
8.377580409573),.UNSPECIFIED.) CURVE() GEOMETRIC_REPRESENTATION_ITEM() 
RATIONAL_B_SPLINE_CURVE((1.,0.5,1.,0.5,1.,0.5,1.)) REPRESENTATION_ITEM(
  '') );
#25 = CARTESIAN_POINT('',(2.527130846701,0.,0.));
#26 = CARTESIAN_POINT('',(2.527130846701,4.377119023861,0.));
#27 = CARTESIAN_POINT('',(-1.263565423351,2.18855951193,0.));
#28 = CARTESIAN_POINT('',(-5.054261693402,6.189685404878E-16,0.));
#29 = CARTESIAN_POINT('',(-1.263565423351,-2.18855951193,0.));
#30 = CARTESIAN_POINT('',(2.527130846701,-4.377119023861,0.));
#31 = CARTESIAN_POINT('',(2.527130846701,0.,0.));
#32 = ORIENTED_EDGE('',*,*,#33,.T.);
#33 = EDGE_CURVE('',#22,#34,#36,.T.);
#34 = VERTEX_POINT('',#35);
#35 = CARTESIAN_POINT('',(2.527130846701,0.,20.217046773608));
#36 = B_SPLINE_CURVE_WITH_KNOTS('',1,(#37,#38),.UNSPECIFIED.,.F.,.F.,(2,
    2),(0.,20.),.PIECEWISE_BEZIER_KNOTS.);
#37 = CARTESIAN_POINT('',(2.527130846701,0.,0.));
#38 = CARTESIAN_POINT('',(2.527130846701,0.,20.217046773608));
#39 = ORIENTED_EDGE('',*,*,#40,.F.);
#40 = EDGE_CURVE('',#34,#34,#41,.T.);
#41 = ( BOUNDED_CURVE() B_SPLINE_CURVE(2,(#42,#43,#44,#45,#46,#47,#48),
.UNSPECIFIED.,.T.,.F.) B_SPLINE_CURVE_WITH_KNOTS((1,2,2,2,2,1),(
    -2.094395102393,0.,2.094395102393,4.188790204786,6.28318530718,
8.377580409573),.UNSPECIFIED.) CURVE() GEOMETRIC_REPRESENTATION_ITEM() 
RATIONAL_B_SPLINE_CURVE((1.,0.5,1.,0.5,1.,0.5,1.)) REPRESENTATION_ITEM(
  '') );
#42 = CARTESIAN_POINT('',(2.527130846701,0.,20.217046773608));
#43 = CARTESIAN_POINT('',(2.527130846701,4.377119023861,20.217046773608)
  );
#44 = CARTESIAN_POINT('',(-1.263565423351,2.18855951193,20.217046773608)
  );
#45 = CARTESIAN_POINT('',(-5.054261693402,6.189685404878E-16,
    20.217046773608));
#46 = CARTESIAN_POINT('',(-1.263565423351,-2.18855951193,20.217046773608
    ));
#47 = CARTESIAN_POINT('',(2.527130846701,-4.377119023861,20.217046773608
    ));
#48 = CARTESIAN_POINT('',(2.527130846701,0.,20.217046773608));
#49 = ORIENTED_EDGE('',*,*,#33,.F.);
#50 = ( BOUNDED_SURFACE() B_SPLINE_SURFACE(2,1,(
    (#51,#52)
    ,(#53,#54)
    ,(#55,#56)
    ,(#57,#58)
    ,(#59,#60)
    ,(#61,#62)
,(#63,#64
    )),.UNSPECIFIED.,.T.,.F.,.F.) B_SPLINE_SURFACE_WITH_KNOTS((1,2,2,2,2
    ,1),(2,2),(-2.094395102393,0.,2.094395102393,4.188790204786,
    6.28318530718,8.377580409573),(-20.,0.),.UNSPECIFIED.) 
GEOMETRIC_REPRESENTATION_ITEM() RATIONAL_B_SPLINE_SURFACE((
    (1.,1.)
    ,(0.5,0.5)
    ,(1.,1.)
    ,(0.5,0.5)
    ,(1.,1.)
    ,(0.5,0.5)
,(1.,1.))) REPRESENTATION_ITEM('') SURFACE() );
#51 = CARTESIAN_POINT('',(2.527130846701,0.,20.217046773608));
#52 = CARTESIAN_POINT('',(2.527130846701,0.,0.));
#53 = CARTESIAN_POINT('',(2.527130846701,-4.377119023861,20.217046773608
    ));
#54 = CARTESIAN_POINT('',(2.527130846701,-4.377119023861,0.));
#55 = CARTESIAN_POINT('',(-1.263565423351,-2.18855951193,20.217046773608
    ));
#56 = CARTESIAN_POINT('',(-1.263565423351,-2.18855951193,0.));
#57 = CARTESIAN_POINT('',(-5.054261693402,-6.189685404878E-16,
    20.217046773608));
#58 = CARTESIAN_POINT('',(-5.054261693402,-6.189685404878E-16,0.));
#59 = CARTESIAN_POINT('',(-1.263565423351,2.18855951193,20.217046773608)
  );
#60 = CARTESIAN_POINT('',(-1.263565423351,2.18855951193,0.));
#61 = CARTESIAN_POINT('',(2.527130846701,4.377119023861,20.217046773608)
  );
#62 = CARTESIAN_POINT('',(2.527130846701,4.377119023861,0.));
#63 = CARTESIAN_POINT('',(2.527130846701,0.,20.217046773608));
#64 = CARTESIAN_POINT('',(2.527130846701,0.,0.));
#65 = ADVANCED_FACE('',(#66,#69),#83,.F.);
#66 = FACE_BOUND('',#67,.F.);
#67 = EDGE_LOOP('',(#68));
#68 = ORIENTED_EDGE('',*,*,#21,.T.);
#69 = FACE_BOUND('',#70,.F.);
#70 = EDGE_LOOP('',(#71));
#71 = ORIENTED_EDGE('',*,*,#72,.T.);
#72 = EDGE_CURVE('',#73,#73,#75,.T.);
#73 = VERTEX_POINT('',#74);
#74 = CARTESIAN_POINT('',(1.213022806417,0.,0.));
#75 = ( BOUNDED_CURVE() B_SPLINE_CURVE(2,(#76,#77,#78,#79,#80,#81,#82),
.UNSPECIFIED.,.T.,.F.) B_SPLINE_CURVE_WITH_KNOTS((1,2,2,2,2,1),(
    -2.094395102393,0.,2.094395102393,4.188790204786,6.28318530718,
8.377580409573),.UNSPECIFIED.) CURVE() GEOMETRIC_REPRESENTATION_ITEM() 
RATIONAL_B_SPLINE_CURVE((1.,0.5,1.,0.5,1.,0.5,1.)) REPRESENTATION_ITEM(
  '') );
#76 = CARTESIAN_POINT('',(1.213022806417,0.,0.));
#77 = CARTESIAN_POINT('',(1.213022806417,-2.101017131453,0.));
#78 = CARTESIAN_POINT('',(-0.606511403208,-1.050508565727,0.));
#79 = CARTESIAN_POINT('',(-2.426045612833,-2.971048994341E-16,0.));
#80 = CARTESIAN_POINT('',(-0.606511403208,1.050508565727,0.));
#81 = CARTESIAN_POINT('',(1.213022806417,2.101017131453,0.));
#82 = CARTESIAN_POINT('',(1.213022806417,0.,0.));
#83 = B_SPLINE_SURFACE_WITH_KNOTS('',1,1,(
    (#84,#85)
    ,(#86,#87
    )),.UNSPECIFIED.,.F.,.F.,.F.,(2,2),(2,2),(-2.5,2.5),(-2.5,2.5),
  .PIECEWISE_BEZIER_KNOTS.);
#84 = CARTESIAN_POINT('',(-2.527130846701,-2.527130846701,0.));
#85 = CARTESIAN_POINT('',(-2.527130846701,2.527130846701,0.));
#86 = CARTESIAN_POINT('',(2.527130846701,-2.527130846701,0.));
#87 = CARTESIAN_POINT('',(2.527130846701,2.527130846701,0.));
#88 = ADVANCED_FACE('',(#89,#92),#106,.T.);
#89 = FACE_BOUND('',#90,.T.);
#90 = EDGE_LOOP('',(#91));
#91 = ORIENTED_EDGE('',*,*,#40,.T.);
#92 = FACE_BOUND('',#93,.T.);
#93 = EDGE_LOOP('',(#94));
#94 = ORIENTED_EDGE('',*,*,#95,.F.);
#95 = EDGE_CURVE('',#96,#96,#98,.T.);
#96 = VERTEX_POINT('',#97);
#97 = CARTESIAN_POINT('',(1.213022806417,0.,20.217046773608));
#98 = ( BOUNDED_CURVE() B_SPLINE_CURVE(2,(#99,#100,#101,#102,#103,#104,
#105),.UNSPECIFIED.,.T.,.F.) B_SPLINE_CURVE_WITH_KNOTS((1,2,2,2,2,1),(
    -2.094395102393,0.,2.094395102393,4.188790204786,6.28318530718,
8.377580409573),.UNSPECIFIED.) CURVE() GEOMETRIC_REPRESENTATION_ITEM() 
RATIONAL_B_SPLINE_CURVE((1.,0.5,1.,0.5,1.,0.5,1.)) REPRESENTATION_ITEM(
  '') );
#99 = CARTESIAN_POINT('',(1.213022806417,0.,20.217046773608));
#100 = CARTESIAN_POINT('',(1.213022806417,2.101017131453,20.217046773608
    ));
#101 = CARTESIAN_POINT('',(-0.606511403208,1.050508565727,
    20.217046773608));
#102 = CARTESIAN_POINT('',(-2.426045612833,2.971048994341E-16,
    20.217046773608));
#103 = CARTESIAN_POINT('',(-0.606511403208,-1.050508565727,
    20.217046773608));
#104 = CARTESIAN_POINT('',(1.213022806417,-2.101017131453,
    20.217046773608));
#105 = CARTESIAN_POINT('',(1.213022806417,0.,20.217046773608));
#106 = B_SPLINE_SURFACE_WITH_KNOTS('',1,1,(
    (#107,#108)
    ,(#109,#110
    )),.UNSPECIFIED.,.F.,.F.,.F.,(2,2),(2,2),(-2.5,2.5),(-2.5,2.5),
  .PIECEWISE_BEZIER_KNOTS.);
#107 = CARTESIAN_POINT('',(-2.527130846701,-2.527130846701,
    20.217046773608));
#108 = CARTESIAN_POINT('',(-2.527130846701,2.527130846701,
    20.217046773608));
#109 = CARTESIAN_POINT('',(2.527130846701,-2.527130846701,
    20.217046773608));
#110 = CARTESIAN_POINT('',(2.527130846701,2.527130846701,20.217046773608
    ));
#111 = ADVANCED_FACE('',(#112),#133,.T.);
#112 = FACE_BOUND('',#113,.T.);
#113 = EDGE_LOOP('',(#114,#115,#122,#132));
#114 = ORIENTED_EDGE('',*,*,#72,.T.);
#115 = ORIENTED_EDGE('',*,*,#116,.T.);
#116 = EDGE_CURVE('',#73,#117,#119,.T.);
#117 = VERTEX_POINT('',#118);
#118 = CARTESIAN_POINT('',(1.213022806417,0.,-1.415193274153));
#119 = B_SPLINE_CURVE_WITH_KNOTS('',1,(#120,#121),.UNSPECIFIED.,.F.,.F.,
  (2,2),(0.,1.4),.PIECEWISE_BEZIER_KNOTS.);
#120 = CARTESIAN_POINT('',(1.213022806417,0.,0.));
#121 = CARTESIAN_POINT('',(1.213022806417,0.,-1.415193274153));
#122 = ORIENTED_EDGE('',*,*,#123,.F.);
#123 = EDGE_CURVE('',#117,#117,#124,.T.);
#124 = ( BOUNDED_CURVE() B_SPLINE_CURVE(2,(#125,#126,#127,#128,#129,#130
,#131),.UNSPECIFIED.,.T.,.F.) B_SPLINE_CURVE_WITH_KNOTS((1,2,2,2,2,1),(
    -2.094395102393,0.,2.094395102393,4.188790204786,6.28318530718,
8.377580409573),.UNSPECIFIED.) CURVE() GEOMETRIC_REPRESENTATION_ITEM() 
RATIONAL_B_SPLINE_CURVE((1.,0.5,1.,0.5,1.,0.5,1.)) REPRESENTATION_ITEM(
  '') );
#125 = CARTESIAN_POINT('',(1.213022806417,0.,-1.415193274153));
#126 = CARTESIAN_POINT('',(1.213022806417,-2.101017131453,
    -1.415193274153));
#127 = CARTESIAN_POINT('',(-0.606511403208,-1.050508565727,
    -1.415193274153));
#128 = CARTESIAN_POINT('',(-2.426045612833,-2.971048994341E-16,
    -1.415193274153));
#129 = CARTESIAN_POINT('',(-0.606511403208,1.050508565727,
    -1.415193274153));
#130 = CARTESIAN_POINT('',(1.213022806417,2.101017131453,-1.415193274153
    ));
#131 = CARTESIAN_POINT('',(1.213022806417,0.,-1.415193274153));
#132 = ORIENTED_EDGE('',*,*,#116,.F.);
#133 = ( BOUNDED_SURFACE() B_SPLINE_SURFACE(2,1,(
    (#134,#135)
    ,(#136,#137)
    ,(#138,#139)
    ,(#140,#141)
    ,(#142,#143)
    ,(#144,#145)
,(#146,#147
    )),.UNSPECIFIED.,.T.,.F.,.F.) B_SPLINE_SURFACE_WITH_KNOTS((1,2,2,2,2
    ,1),(2,2),(-2.094395102393,0.,2.094395102393,4.188790204786,
    6.28318530718,8.377580409573),(-1.4,0.),.UNSPECIFIED.) 
GEOMETRIC_REPRESENTATION_ITEM() RATIONAL_B_SPLINE_SURFACE((
    (1.,1.)
    ,(0.5,0.5)
    ,(1.,1.)
    ,(0.5,0.5)
    ,(1.,1.)
    ,(0.5,0.5)
,(1.,1.))) REPRESENTATION_ITEM('') SURFACE() );
#134 = CARTESIAN_POINT('',(1.213022806417,0.,-1.415193274153));
#135 = CARTESIAN_POINT('',(1.213022806417,0.,0.));
#136 = CARTESIAN_POINT('',(1.213022806417,2.101017131453,-1.415193274153
    ));
#137 = CARTESIAN_POINT('',(1.213022806417,2.101017131453,0.));
#138 = CARTESIAN_POINT('',(-0.606511403208,1.050508565727,
    -1.415193274153));
#139 = CARTESIAN_POINT('',(-0.606511403208,1.050508565727,0.));
#140 = CARTESIAN_POINT('',(-2.426045612833,2.971048994341E-16,
    -1.415193274153));
#141 = CARTESIAN_POINT('',(-2.426045612833,2.971048994341E-16,0.));
#142 = CARTESIAN_POINT('',(-0.606511403208,-1.050508565727,
    -1.415193274153));
#143 = CARTESIAN_POINT('',(-0.606511403208,-1.050508565727,0.));
#144 = CARTESIAN_POINT('',(1.213022806417,-2.101017131453,
    -1.415193274153));
#145 = CARTESIAN_POINT('',(1.213022806417,-2.101017131453,0.));
#146 = CARTESIAN_POINT('',(1.213022806417,0.,-1.415193274153));
#147 = CARTESIAN_POINT('',(1.213022806417,0.,0.));
#148 = ADVANCED_FACE('',(#149),#170,.T.);
#149 = FACE_BOUND('',#150,.T.);
#150 = EDGE_LOOP('',(#151,#152,#159,#169));
#151 = ORIENTED_EDGE('',*,*,#95,.T.);
#152 = ORIENTED_EDGE('',*,*,#153,.T.);
#153 = EDGE_CURVE('',#96,#154,#156,.T.);
#154 = VERTEX_POINT('',#155);
#155 = CARTESIAN_POINT('',(1.213022806417,0.,21.632240047761));
#156 = B_SPLINE_CURVE_WITH_KNOTS('',1,(#157,#158),.UNSPECIFIED.,.F.,.F.,
  (2,2),(0.,1.4),.PIECEWISE_BEZIER_KNOTS.);
#157 = CARTESIAN_POINT('',(1.213022806417,0.,20.217046773608));
#158 = CARTESIAN_POINT('',(1.213022806417,0.,21.632240047761));
#159 = ORIENTED_EDGE('',*,*,#160,.F.);
#160 = EDGE_CURVE('',#154,#154,#161,.T.);
#161 = ( BOUNDED_CURVE() B_SPLINE_CURVE(2,(#162,#163,#164,#165,#166,#167
,#168),.UNSPECIFIED.,.T.,.F.) B_SPLINE_CURVE_WITH_KNOTS((1,2,2,2,2,1),(
    -2.094395102393,0.,2.094395102393,4.188790204786,6.28318530718,
8.377580409573),.UNSPECIFIED.) CURVE() GEOMETRIC_REPRESENTATION_ITEM() 
RATIONAL_B_SPLINE_CURVE((1.,0.5,1.,0.5,1.,0.5,1.)) REPRESENTATION_ITEM(
  '') );
#162 = CARTESIAN_POINT('',(1.213022806417,0.,21.632240047761));
#163 = CARTESIAN_POINT('',(1.213022806417,2.101017131453,21.632240047761
    ));
#164 = CARTESIAN_POINT('',(-0.606511403208,1.050508565727,
    21.632240047761));
#165 = CARTESIAN_POINT('',(-2.426045612833,2.971048994341E-16,
    21.632240047761));
#166 = CARTESIAN_POINT('',(-0.606511403208,-1.050508565727,
    21.632240047761));
#167 = CARTESIAN_POINT('',(1.213022806417,-2.101017131453,
    21.632240047761));
#168 = CARTESIAN_POINT('',(1.213022806417,0.,21.632240047761));
#169 = ORIENTED_EDGE('',*,*,#153,.F.);
#170 = ( BOUNDED_SURFACE() B_SPLINE_SURFACE(2,1,(
    (#171,#172)
    ,(#173,#174)
    ,(#175,#176)
    ,(#177,#178)
    ,(#179,#180)
    ,(#181,#182)
,(#183,#184
    )),.UNSPECIFIED.,.T.,.F.,.F.) B_SPLINE_SURFACE_WITH_KNOTS((1,2,2,2,2
    ,1),(2,2),(-2.094395102393,0.,2.094395102393,4.188790204786,
    6.28318530718,8.377580409573),(-1.4,0.),.UNSPECIFIED.) 
GEOMETRIC_REPRESENTATION_ITEM() RATIONAL_B_SPLINE_SURFACE((
    (1.,1.)
    ,(0.5,0.5)
    ,(1.,1.)
    ,(0.5,0.5)
    ,(1.,1.)
    ,(0.5,0.5)
,(1.,1.))) REPRESENTATION_ITEM('') SURFACE() );
#171 = CARTESIAN_POINT('',(1.213022806417,0.,21.632240047761));
#172 = CARTESIAN_POINT('',(1.213022806417,0.,20.217046773608));
#173 = CARTESIAN_POINT('',(1.213022806417,-2.101017131453,
    21.632240047761));
#174 = CARTESIAN_POINT('',(1.213022806417,-2.101017131453,
    20.217046773608));
#175 = CARTESIAN_POINT('',(-0.606511403208,-1.050508565727,
    21.632240047761));
#176 = CARTESIAN_POINT('',(-0.606511403208,-1.050508565727,
    20.217046773608));
#177 = CARTESIAN_POINT('',(-2.426045612833,-2.971048994341E-16,
    21.632240047761));
#178 = CARTESIAN_POINT('',(-2.426045612833,-2.971048994341E-16,
    20.217046773608));
#179 = CARTESIAN_POINT('',(-0.606511403208,1.050508565727,
    21.632240047761));
#180 = CARTESIAN_POINT('',(-0.606511403208,1.050508565727,
    20.217046773608));
#181 = CARTESIAN_POINT('',(1.213022806417,2.101017131453,21.632240047761
    ));
#182 = CARTESIAN_POINT('',(1.213022806417,2.101017131453,20.217046773608
    ));
#183 = CARTESIAN_POINT('',(1.213022806417,0.,21.632240047761));
#184 = CARTESIAN_POINT('',(1.213022806417,0.,20.217046773608));
#185 = ADVANCED_FACE('',(#186),#189,.F.);
#186 = FACE_BOUND('',#187,.T.);
#187 = EDGE_LOOP('',(#188));
#188 = ORIENTED_EDGE('',*,*,#123,.T.);
#189 = B_SPLINE_SURFACE_WITH_KNOTS('',1,1,(
    (#190,#191)
    ,(#192,#193
    )),.UNSPECIFIED.,.F.,.F.,.F.,(2,2),(2,2),(-1.2,1.2),(-1.2,1.2),
  .PIECEWISE_BEZIER_KNOTS.);
#190 = CARTESIAN_POINT('',(-1.213022806417,-1.213022806417,
    -1.415193274153));
#191 = CARTESIAN_POINT('',(-1.213022806417,1.213022806417,
    -1.415193274153));
#192 = CARTESIAN_POINT('',(1.213022806417,-1.213022806417,
    -1.415193274153));
#193 = CARTESIAN_POINT('',(1.213022806417,1.213022806417,-1.415193274153
    ));
#194 = ADVANCED_FACE('',(#195),#198,.T.);
#195 = FACE_BOUND('',#196,.T.);
#196 = EDGE_LOOP('',(#197));
#197 = ORIENTED_EDGE('',*,*,#160,.T.);
#198 = B_SPLINE_SURFACE_WITH_KNOTS('',1,1,(
    (#199,#200)
    ,(#201,#202
    )),.UNSPECIFIED.,.F.,.F.,.F.,(2,2),(2,2),(-1.2,1.2),(-1.2,1.2),
  .PIECEWISE_BEZIER_KNOTS.);
#199 = CARTESIAN_POINT('',(-1.213022806417,-1.213022806417,
    21.632240047761));
#200 = CARTESIAN_POINT('',(-1.213022806417,1.213022806417,
    21.632240047761));
#201 = CARTESIAN_POINT('',(1.213022806417,-1.213022806417,
    21.632240047761));
#202 = CARTESIAN_POINT('',(1.213022806417,1.213022806417,21.632240047761
    ));
#203 = ( GEOMETRIC_REPRESENTATION_CONTEXT(3) 
GLOBAL_UNCERTAINTY_ASSIGNED_CONTEXT((#207)) GLOBAL_UNIT_ASSIGNED_CONTEXT
((#204,#205,#206)) REPRESENTATION_CONTEXT('Context #1',
  '3D Context with UNIT and UNCERTAINTY') );
#204 = ( LENGTH_UNIT() NAMED_UNIT(*) SI_UNIT(.MILLI.,.METRE.) );
#205 = ( NAMED_UNIT(*) PLANE_ANGLE_UNIT() SI_UNIT($,.RADIAN.) );
#206 = ( NAMED_UNIT(*) SI_UNIT($,.STERADIAN.) SOLID_ANGLE_UNIT() );
#207 = UNCERTAINTY_MEASURE_WITH_UNIT(LENGTH_MEASURE(1.E-07),#204,
  'distance_accuracy_value','confusion accuracy');
#208 = PRODUCT_RELATED_PRODUCT_CATEGORY('part',$,(#7));
ENDSEC;
END-ISO-10303-21;
