ISO-10303-21;
HEADER;
FILE_DESCRIPTION(('FreeCAD Model'),'2;1');
FILE_NAME('Open CASCADE Shape Model','2025-05-02T15:54:24',('FreeCAD'),(
    'FreeCAD'),'Open CASCADE STEP processor 7.6','FreeCAD','Unknown');
FILE_SCHEMA(('AUTOMOTIVE_DESIGN { 1 0 10303 214 1 1 1 1 }'));
ENDSEC;
DATA;
#1 = APPLICATION_PROTOCOL_DEFINITION('international standard',
  'automotive_design',2000,#2);
#2 = APPLICATION_CONTEXT(
  'core data for automotive mechanical design processes');
#3 = SHAPE_DEFINITION_REPRESENTATION(#4,#10);
#4 = PRODUCT_DEFINITION_SHAPE('','',#5);
#5 = PRODUCT_DEFINITION('design','',#6,#9);
#6 = PRODUCT_DEFINITION_FORMATION('','',#7);
#7 = PRODUCT('Open CASCADE STEP translator 7.6 1',
  'Open CASCADE STEP translator 7.6 1','',(#8));
#8 = PRODUCT_CONTEXT('',#2,'mechanical');
#9 = PRODUCT_DEFINITION_CONTEXT('part definition',#2,'design');
#10 = ADVANCED_BREP_SHAPE_REPRESENTATION('',(#11,#15),#205);
#11 = AXIS2_PLACEMENT_3D('',#12,#13,#14);
#12 = CARTESIAN_POINT('',(0.,0.,0.));
#13 = DIRECTION('',(0.,0.,1.));
#14 = DIRECTION('',(1.,0.,-0.));
#15 = MANIFOLD_SOLID_BREP('',#16);
#16 = CLOSED_SHELL('',(#17,#65,#113,#141,#169,#187));
#17 = ADVANCED_FACE('',(#18),#54,.F.);
#18 = FACE_BOUND('',#19,.F.);
#19 = EDGE_LOOP('',(#20,#29,#39,#46));
#20 = ORIENTED_EDGE('',*,*,#21,.T.);
#21 = EDGE_CURVE('',#22,#24,#26,.T.);
#22 = VERTEX_POINT('',#23);
#23 = CARTESIAN_POINT('',(-5.359130481312,0.,21.779506276051));
#24 = VERTEX_POINT('',#25);
#25 = CARTESIAN_POINT('',(-5.359130481312,0.,0.));
#26 = B_SPLINE_CURVE_WITH_KNOTS('',1,(#27,#28),.UNSPECIFIED.,.F.,.F.,(2,
    2),(-0.,25.4),.PIECEWISE_BEZIER_KNOTS.);
#27 = CARTESIAN_POINT('',(-5.359130481312,0.,21.779506276051));
#28 = CARTESIAN_POINT('',(-5.359130481312,0.,0.));
#29 = ORIENTED_EDGE('',*,*,#30,.T.);
#30 = EDGE_CURVE('',#24,#31,#33,.T.);
#31 = VERTEX_POINT('',#32);
#32 = CARTESIAN_POINT('',(5.359130481312,6.563041990151E-16,0.));
#33 = ( BOUNDED_CURVE() B_SPLINE_CURVE(2,(#34,#35,#36,#37,#38),
.UNSPECIFIED.,.F.,.F.) B_SPLINE_CURVE_WITH_KNOTS((3,2,3),(3.14159265359,
4.712388980385,6.28318530718),.PIECEWISE_BEZIER_KNOTS.) CURVE() 
GEOMETRIC_REPRESENTATION_ITEM() RATIONAL_B_SPLINE_CURVE((1.,
0.707106781187,1.,0.707106781187,1.)) REPRESENTATION_ITEM('') );
#34 = CARTESIAN_POINT('',(-5.359130481312,6.563041990151E-16,0.));
#35 = CARTESIAN_POINT('',(-5.359130481312,-5.359130481312,0.));
#36 = CARTESIAN_POINT('',(-9.844562985227E-16,-5.359130481312,0.));
#37 = CARTESIAN_POINT('',(5.359130481312,-5.359130481312,0.));
#38 = CARTESIAN_POINT('',(5.359130481312,-1.31260839803E-15,0.));
#39 = ORIENTED_EDGE('',*,*,#40,.F.);
#40 = EDGE_CURVE('',#41,#31,#43,.T.);
#41 = VERTEX_POINT('',#42);
#42 = CARTESIAN_POINT('',(5.359130481312,6.563041990151E-16,
    21.779506276051));
#43 = B_SPLINE_CURVE_WITH_KNOTS('',1,(#44,#45),.UNSPECIFIED.,.F.,.F.,(2,
    2),(-0.,25.4),.PIECEWISE_BEZIER_KNOTS.);
#44 = CARTESIAN_POINT('',(5.359130481312,6.563041990151E-16,
    21.779506276051));
#45 = CARTESIAN_POINT('',(5.359130481312,6.563041990151E-16,0.));
#46 = ORIENTED_EDGE('',*,*,#47,.F.);
#47 = EDGE_CURVE('',#22,#41,#48,.T.);
#48 = ( BOUNDED_CURVE() B_SPLINE_CURVE(2,(#49,#50,#51,#52,#53),
.UNSPECIFIED.,.F.,.F.) B_SPLINE_CURVE_WITH_KNOTS((3,2,3),(3.14159265359,
4.712388980385,6.28318530718),.PIECEWISE_BEZIER_KNOTS.) CURVE() 
GEOMETRIC_REPRESENTATION_ITEM() RATIONAL_B_SPLINE_CURVE((1.,
0.707106781187,1.,0.707106781187,1.)) REPRESENTATION_ITEM('') );
#49 = CARTESIAN_POINT('',(-5.359130481312,6.563041990151E-16,
    21.779506276051));
#50 = CARTESIAN_POINT('',(-5.359130481312,-5.359130481312,
    21.779506276051));
#51 = CARTESIAN_POINT('',(-9.844562985227E-16,-5.359130481312,
    21.779506276051));
#52 = CARTESIAN_POINT('',(5.359130481312,-5.359130481312,21.779506276051
    ));
#53 = CARTESIAN_POINT('',(5.359130481312,-1.31260839803E-15,
    21.779506276051));
#54 = ( BOUNDED_SURFACE() B_SPLINE_SURFACE(2,1,(
    (#55,#56)
    ,(#57,#58)
    ,(#59,#60)
    ,(#61,#62)
,(#63,#64
    )),.UNSPECIFIED.,.F.,.F.,.F.) B_SPLINE_SURFACE_WITH_KNOTS((3,2,3),(2
    ,2),(3.14159265359,4.712388980385,6.28318530718),(0.,25.4),
.PIECEWISE_BEZIER_KNOTS.) GEOMETRIC_REPRESENTATION_ITEM() 
RATIONAL_B_SPLINE_SURFACE((
    (1.,1.)
    ,(0.707106781187,0.707106781187)
    ,(1.,1.)
    ,(0.707106781187,0.707106781187)
,(1.,1.))) REPRESENTATION_ITEM('') SURFACE() );
#55 = CARTESIAN_POINT('',(5.359130481312,6.563041990151E-16,
    21.779506276051));
#56 = CARTESIAN_POINT('',(5.359130481312,6.563041990151E-16,0.));
#57 = CARTESIAN_POINT('',(5.359130481312,-5.359130481312,21.779506276051
    ));
#58 = CARTESIAN_POINT('',(5.359130481312,-5.359130481312,0.));
#59 = CARTESIAN_POINT('',(9.844562985227E-16,-5.359130481312,
    21.779506276051));
#60 = CARTESIAN_POINT('',(9.844562985227E-16,-5.359130481312,0.));
#61 = CARTESIAN_POINT('',(-5.359130481312,-5.359130481312,
    21.779506276051));
#62 = CARTESIAN_POINT('',(-5.359130481312,-5.359130481312,0.));
#63 = CARTESIAN_POINT('',(-5.359130481312,-1.31260839803E-15,
    21.779506276051));
#64 = CARTESIAN_POINT('',(-5.359130481312,-1.31260839803E-15,0.));
#65 = ADVANCED_FACE('',(#66),#102,.T.);
#66 = FACE_BOUND('',#67,.T.);
#67 = EDGE_LOOP('',(#68,#80,#87,#97));
#68 = ORIENTED_EDGE('',*,*,#69,.F.);
#69 = EDGE_CURVE('',#70,#72,#74,.T.);
#70 = VERTEX_POINT('',#71);
#71 = CARTESIAN_POINT('',(7.502782673836,9.188258786212E-16,
    21.779506276051));
#72 = VERTEX_POINT('',#73);
#73 = CARTESIAN_POINT('',(-7.502782673836,0.,21.779506276051));
#74 = ( BOUNDED_CURVE() B_SPLINE_CURVE(2,(#75,#76,#77,#78,#79),
.UNSPECIFIED.,.F.,.F.) B_SPLINE_CURVE_WITH_KNOTS((3,2,3),(0.,
1.570796326795,3.14159265359),.PIECEWISE_BEZIER_KNOTS.) CURVE() 
GEOMETRIC_REPRESENTATION_ITEM() RATIONAL_B_SPLINE_CURVE((1.,
0.707106781187,1.,0.707106781187,1.)) REPRESENTATION_ITEM('') );
#75 = CARTESIAN_POINT('',(7.502782673836,0.,21.779506276051));
#76 = CARTESIAN_POINT('',(7.502782673836,7.502782673836,21.779506276051)
  );
#77 = CARTESIAN_POINT('',(4.594129393106E-16,7.502782673836,
    21.779506276051));
#78 = CARTESIAN_POINT('',(-7.502782673836,7.502782673836,21.779506276051
    ));
#79 = CARTESIAN_POINT('',(-7.502782673836,9.188258786212E-16,
    21.779506276051));
#80 = ORIENTED_EDGE('',*,*,#81,.T.);
#81 = EDGE_CURVE('',#70,#82,#84,.T.);
#82 = VERTEX_POINT('',#83);
#83 = CARTESIAN_POINT('',(7.502782673836,9.188258786212E-16,0.));
#84 = B_SPLINE_CURVE_WITH_KNOTS('',1,(#85,#86),.UNSPECIFIED.,.F.,.F.,(2,
    2),(-0.,25.4),.PIECEWISE_BEZIER_KNOTS.);
#85 = CARTESIAN_POINT('',(7.502782673836,9.188258786212E-16,
    21.779506276051));
#86 = CARTESIAN_POINT('',(7.502782673836,9.188258786212E-16,0.));
#87 = ORIENTED_EDGE('',*,*,#88,.T.);
#88 = EDGE_CURVE('',#82,#89,#91,.T.);
#89 = VERTEX_POINT('',#90);
#90 = CARTESIAN_POINT('',(-7.502782673836,0.,0.));
#91 = ( BOUNDED_CURVE() B_SPLINE_CURVE(2,(#92,#93,#94,#95,#96),
.UNSPECIFIED.,.F.,.F.) B_SPLINE_CURVE_WITH_KNOTS((3,2,3),(0.,
1.570796326795,3.14159265359),.PIECEWISE_BEZIER_KNOTS.) CURVE() 
GEOMETRIC_REPRESENTATION_ITEM() RATIONAL_B_SPLINE_CURVE((1.,
0.707106781187,1.,0.707106781187,1.)) REPRESENTATION_ITEM('') );
#92 = CARTESIAN_POINT('',(7.502782673836,0.,0.));
#93 = CARTESIAN_POINT('',(7.502782673836,7.502782673836,0.));
#94 = CARTESIAN_POINT('',(4.594129393106E-16,7.502782673836,0.));
#95 = CARTESIAN_POINT('',(-7.502782673836,7.502782673836,0.));
#96 = CARTESIAN_POINT('',(-7.502782673836,9.188258786212E-16,0.));
#97 = ORIENTED_EDGE('',*,*,#98,.F.);
#98 = EDGE_CURVE('',#72,#89,#99,.T.);
#99 = B_SPLINE_CURVE_WITH_KNOTS('',1,(#100,#101),.UNSPECIFIED.,.F.,.F.,(
    2,2),(-0.,25.4),.PIECEWISE_BEZIER_KNOTS.);
#100 = CARTESIAN_POINT('',(-7.502782673836,0.,21.779506276051));
#101 = CARTESIAN_POINT('',(-7.502782673836,0.,0.));
#102 = ( BOUNDED_SURFACE() B_SPLINE_SURFACE(2,1,(
    (#103,#104)
    ,(#105,#106)
    ,(#107,#108)
    ,(#109,#110)
,(#111,#112
    )),.UNSPECIFIED.,.F.,.F.,.F.) B_SPLINE_SURFACE_WITH_KNOTS((3,2,3),(2
    ,2),(0.,1.570796326795,3.14159265359),(0.,25.4),
.PIECEWISE_BEZIER_KNOTS.) GEOMETRIC_REPRESENTATION_ITEM() 
RATIONAL_B_SPLINE_SURFACE((
    (1.,1.)
    ,(0.707106781187,0.707106781187)
    ,(1.,1.)
    ,(0.707106781187,0.707106781187)
,(1.,1.))) REPRESENTATION_ITEM('') SURFACE() );
#103 = CARTESIAN_POINT('',(-7.502782673836,0.,21.779506276051));
#104 = CARTESIAN_POINT('',(-7.502782673836,0.,0.));
#105 = CARTESIAN_POINT('',(-7.502782673836,7.502782673836,
    21.779506276051));
#106 = CARTESIAN_POINT('',(-7.502782673836,7.502782673836,0.));
#107 = CARTESIAN_POINT('',(-4.594129393106E-16,7.502782673836,
    21.779506276051));
#108 = CARTESIAN_POINT('',(-4.594129393106E-16,7.502782673836,0.));
#109 = CARTESIAN_POINT('',(7.502782673836,7.502782673836,21.779506276051
    ));
#110 = CARTESIAN_POINT('',(7.502782673836,7.502782673836,0.));
#111 = CARTESIAN_POINT('',(7.502782673836,9.188258786212E-16,
    21.779506276051));
#112 = CARTESIAN_POINT('',(7.502782673836,9.188258786212E-16,0.));
#113 = ADVANCED_FACE('',(#114,#125),#136,.T.);
#114 = FACE_BOUND('',#115,.T.);
#115 = EDGE_LOOP('',(#116,#124));
#116 = ORIENTED_EDGE('',*,*,#117,.T.);
#117 = EDGE_CURVE('',#72,#70,#118,.T.);
#118 = ( BOUNDED_CURVE() B_SPLINE_CURVE(2,(#119,#120,#121,#122,#123),
.UNSPECIFIED.,.F.,.F.) B_SPLINE_CURVE_WITH_KNOTS((3,2,3),(3.14159265359,
4.712388980385,6.28318530718),.PIECEWISE_BEZIER_KNOTS.) CURVE() 
GEOMETRIC_REPRESENTATION_ITEM() RATIONAL_B_SPLINE_CURVE((1.,
0.707106781187,1.,0.707106781187,1.)) REPRESENTATION_ITEM('') );
#119 = CARTESIAN_POINT('',(-7.502782673836,9.188258786212E-16,
    21.779506276051));
#120 = CARTESIAN_POINT('',(-7.502782673836,-7.502782673836,
    21.779506276051));
#121 = CARTESIAN_POINT('',(-1.378238817932E-15,-7.502782673836,
    21.779506276051));
#122 = CARTESIAN_POINT('',(7.502782673836,-7.502782673836,
    21.779506276051));
#123 = CARTESIAN_POINT('',(7.502782673836,-1.837651757242E-15,
    21.779506276051));
#124 = ORIENTED_EDGE('',*,*,#69,.T.);
#125 = FACE_BOUND('',#126,.T.);
#126 = EDGE_LOOP('',(#127,#128));
#127 = ORIENTED_EDGE('',*,*,#47,.F.);
#128 = ORIENTED_EDGE('',*,*,#129,.F.);
#129 = EDGE_CURVE('',#41,#22,#130,.T.);
#130 = ( BOUNDED_CURVE() B_SPLINE_CURVE(2,(#131,#132,#133,#134,#135),
.UNSPECIFIED.,.F.,.F.) B_SPLINE_CURVE_WITH_KNOTS((3,2,3),(0.,
1.570796326795,3.14159265359),.PIECEWISE_BEZIER_KNOTS.) CURVE() 
GEOMETRIC_REPRESENTATION_ITEM() RATIONAL_B_SPLINE_CURVE((1.,
0.707106781187,1.,0.707106781187,1.)) REPRESENTATION_ITEM('') );
#131 = CARTESIAN_POINT('',(5.359130481312,0.,21.779506276051));
#132 = CARTESIAN_POINT('',(5.359130481312,5.359130481312,21.779506276051
    ));
#133 = CARTESIAN_POINT('',(3.281520995076E-16,5.359130481312,
    21.779506276051));
#134 = CARTESIAN_POINT('',(-5.359130481312,5.359130481312,
    21.779506276051));
#135 = CARTESIAN_POINT('',(-5.359130481312,6.563041990151E-16,
    21.779506276051));
#136 = B_SPLINE_SURFACE_WITH_KNOTS('',1,1,(
    (#137,#138)
    ,(#139,#140
    )),.UNSPECIFIED.,.F.,.F.,.F.,(2,2),(2,2),(-8.75,8.75),(-8.75,8.75),
  .PIECEWISE_BEZIER_KNOTS.);
#137 = CARTESIAN_POINT('',(-7.502782673836,-7.502782673836,
    21.779506276051));
#138 = CARTESIAN_POINT('',(-7.502782673836,7.502782673836,
    21.779506276051));
#139 = CARTESIAN_POINT('',(7.502782673836,-7.502782673836,
    21.779506276051));
#140 = CARTESIAN_POINT('',(7.502782673836,7.502782673836,21.779506276051
    ));
#141 = ADVANCED_FACE('',(#142,#153),#164,.F.);
#142 = FACE_BOUND('',#143,.T.);
#143 = EDGE_LOOP('',(#144,#152));
#144 = ORIENTED_EDGE('',*,*,#145,.F.);
#145 = EDGE_CURVE('',#89,#82,#146,.T.);
#146 = ( BOUNDED_CURVE() B_SPLINE_CURVE(2,(#147,#148,#149,#150,#151),
.UNSPECIFIED.,.F.,.F.) B_SPLINE_CURVE_WITH_KNOTS((3,2,3),(3.14159265359,
4.712388980385,6.28318530718),.PIECEWISE_BEZIER_KNOTS.) CURVE() 
GEOMETRIC_REPRESENTATION_ITEM() RATIONAL_B_SPLINE_CURVE((1.,
0.707106781187,1.,0.707106781187,1.)) REPRESENTATION_ITEM('') );
#147 = CARTESIAN_POINT('',(-7.502782673836,9.188258786212E-16,0.));
#148 = CARTESIAN_POINT('',(-7.502782673836,-7.502782673836,0.));
#149 = CARTESIAN_POINT('',(-1.378238817932E-15,-7.502782673836,0.));
#150 = CARTESIAN_POINT('',(7.502782673836,-7.502782673836,0.));
#151 = CARTESIAN_POINT('',(7.502782673836,-1.837651757242E-15,0.));
#152 = ORIENTED_EDGE('',*,*,#88,.F.);
#153 = FACE_BOUND('',#154,.T.);
#154 = EDGE_LOOP('',(#155,#156));
#155 = ORIENTED_EDGE('',*,*,#30,.T.);
#156 = ORIENTED_EDGE('',*,*,#157,.T.);
#157 = EDGE_CURVE('',#31,#24,#158,.T.);
#158 = ( BOUNDED_CURVE() B_SPLINE_CURVE(2,(#159,#160,#161,#162,#163),
.UNSPECIFIED.,.F.,.F.) B_SPLINE_CURVE_WITH_KNOTS((3,2,3),(0.,
1.570796326795,3.14159265359),.PIECEWISE_BEZIER_KNOTS.) CURVE() 
GEOMETRIC_REPRESENTATION_ITEM() RATIONAL_B_SPLINE_CURVE((1.,
0.707106781187,1.,0.707106781187,1.)) REPRESENTATION_ITEM('') );
#159 = CARTESIAN_POINT('',(5.359130481312,0.,0.));
#160 = CARTESIAN_POINT('',(5.359130481312,5.359130481312,0.));
#161 = CARTESIAN_POINT('',(3.281520995076E-16,5.359130481312,0.));
#162 = CARTESIAN_POINT('',(-5.359130481312,5.359130481312,0.));
#163 = CARTESIAN_POINT('',(-5.359130481312,6.563041990151E-16,0.));
#164 = B_SPLINE_SURFACE_WITH_KNOTS('',1,1,(
    (#165,#166)
    ,(#167,#168
    )),.UNSPECIFIED.,.F.,.F.,.F.,(2,2),(2,2),(-8.75,8.75),(-8.75,8.75),
  .PIECEWISE_BEZIER_KNOTS.);
#165 = CARTESIAN_POINT('',(-7.502782673836,-7.502782673836,0.));
#166 = CARTESIAN_POINT('',(-7.502782673836,7.502782673836,0.));
#167 = CARTESIAN_POINT('',(7.502782673836,-7.502782673836,0.));
#168 = CARTESIAN_POINT('',(7.502782673836,7.502782673836,0.));
#169 = ADVANCED_FACE('',(#170),#176,.T.);
#170 = FACE_BOUND('',#171,.T.);
#171 = EDGE_LOOP('',(#172,#173,#174,#175));
#172 = ORIENTED_EDGE('',*,*,#81,.F.);
#173 = ORIENTED_EDGE('',*,*,#117,.F.);
#174 = ORIENTED_EDGE('',*,*,#98,.T.);
#175 = ORIENTED_EDGE('',*,*,#145,.T.);
#176 = ( BOUNDED_SURFACE() B_SPLINE_SURFACE(2,1,(
    (#177,#178)
    ,(#179,#180)
    ,(#181,#182)
    ,(#183,#184)
,(#185,#186
    )),.UNSPECIFIED.,.F.,.F.,.F.) B_SPLINE_SURFACE_WITH_KNOTS((3,2,3),(2
    ,2),(3.14159265359,4.712388980385,6.28318530718),(0.,25.4),
.PIECEWISE_BEZIER_KNOTS.) GEOMETRIC_REPRESENTATION_ITEM() 
RATIONAL_B_SPLINE_SURFACE((
    (1.,1.)
    ,(0.707106781187,0.707106781187)
    ,(1.,1.)
    ,(0.707106781187,0.707106781187)
,(1.,1.))) REPRESENTATION_ITEM('') SURFACE() );
#177 = CARTESIAN_POINT('',(7.502782673836,9.188258786212E-16,
    21.779506276051));
#178 = CARTESIAN_POINT('',(7.502782673836,9.188258786212E-16,0.));
#179 = CARTESIAN_POINT('',(7.502782673836,-7.502782673836,
    21.779506276051));
#180 = CARTESIAN_POINT('',(7.502782673836,-7.502782673836,0.));
#181 = CARTESIAN_POINT('',(1.378238817932E-15,-7.502782673836,
    21.779506276051));
#182 = CARTESIAN_POINT('',(1.378238817932E-15,-7.502782673836,0.));
#183 = CARTESIAN_POINT('',(-7.502782673836,-7.502782673836,
    21.779506276051));
#184 = CARTESIAN_POINT('',(-7.502782673836,-7.502782673836,0.));
#185 = CARTESIAN_POINT('',(-7.502782673836,-1.837651757242E-15,
    21.779506276051));
#186 = CARTESIAN_POINT('',(-7.502782673836,-1.837651757242E-15,0.));
#187 = ADVANCED_FACE('',(#188),#194,.F.);
#188 = FACE_BOUND('',#189,.F.);
#189 = EDGE_LOOP('',(#190,#191,#192,#193));
#190 = ORIENTED_EDGE('',*,*,#157,.T.);
#191 = ORIENTED_EDGE('',*,*,#21,.F.);
#192 = ORIENTED_EDGE('',*,*,#129,.F.);
#193 = ORIENTED_EDGE('',*,*,#40,.T.);
#194 = ( BOUNDED_SURFACE() B_SPLINE_SURFACE(2,1,(
    (#195,#196)
    ,(#197,#198)
    ,(#199,#200)
    ,(#201,#202)
,(#203,#204
    )),.UNSPECIFIED.,.F.,.F.,.F.) B_SPLINE_SURFACE_WITH_KNOTS((3,2,3),(2
    ,2),(0.,1.570796326795,3.14159265359),(0.,25.4),
.PIECEWISE_BEZIER_KNOTS.) GEOMETRIC_REPRESENTATION_ITEM() 
RATIONAL_B_SPLINE_SURFACE((
    (1.,1.)
    ,(0.707106781187,0.707106781187)
    ,(1.,1.)
    ,(0.707106781187,0.707106781187)
,(1.,1.))) REPRESENTATION_ITEM('') SURFACE() );
#195 = CARTESIAN_POINT('',(-5.359130481312,0.,21.779506276051));
#196 = CARTESIAN_POINT('',(-5.359130481312,0.,0.));
#197 = CARTESIAN_POINT('',(-5.359130481312,5.359130481312,
    21.779506276051));
#198 = CARTESIAN_POINT('',(-5.359130481312,5.359130481312,0.));
#199 = CARTESIAN_POINT('',(-3.281520995076E-16,5.359130481312,
    21.779506276051));
#200 = CARTESIAN_POINT('',(-3.281520995076E-16,5.359130481312,0.));
#201 = CARTESIAN_POINT('',(5.359130481312,5.359130481312,21.779506276051
    ));
#202 = CARTESIAN_POINT('',(5.359130481312,5.359130481312,0.));
#203 = CARTESIAN_POINT('',(5.359130481312,6.563041990151E-16,
    21.779506276051));
#204 = CARTESIAN_POINT('',(5.359130481312,6.563041990151E-16,0.));
#205 = ( GEOMETRIC_REPRESENTATION_CONTEXT(3) 
GLOBAL_UNCERTAINTY_ASSIGNED_CONTEXT((#209)) GLOBAL_UNIT_ASSIGNED_CONTEXT
((#206,#207,#208)) REPRESENTATION_CONTEXT('Context #1',
  '3D Context with UNIT and UNCERTAINTY') );
#206 = ( LENGTH_UNIT() NAMED_UNIT(*) SI_UNIT(.MILLI.,.METRE.) );
#207 = ( NAMED_UNIT(*) PLANE_ANGLE_UNIT() SI_UNIT($,.RADIAN.) );
#208 = ( NAMED_UNIT(*) SI_UNIT($,.STERADIAN.) SOLID_ANGLE_UNIT() );
#209 = UNCERTAINTY_MEASURE_WITH_UNIT(LENGTH_MEASURE(1.E-07),#206,
  'distance_accuracy_value','confusion accuracy');
#210 = PRODUCT_RELATED_PRODUCT_CATEGORY('part',$,(#7));
ENDSEC;
END-ISO-10303-21;
