ISO-10303-21;
HEADER;
FILE_DESCRIPTION(('FreeCAD Model'),'2;1');
FILE_NAME('Open CASCADE Shape Model','2025-05-02T07:06:18',('FreeCAD'),(
    'FreeCAD'),'Open CASCADE STEP processor 7.6','FreeCAD','Unknown');
FILE_SCHEMA(('AUTOMOTIVE_DESIGN { 1 0 10303 214 1 1 1 1 }'));
ENDSEC;
DATA;
#1 = APPLICATION_PROTOCOL_DEFINITION('international standard',
  'automotive_design',2000,#2);
#2 = APPLICATION_CONTEXT(
  'core data for automotive mechanical design processes');
#3 = SHAPE_DEFINITION_REPRESENTATION(#4,#10);
#4 = PRODUCT_DEFINITION_SHAPE('','',#5);
#5 = PRODUCT_DEFINITION('design','',#6,#9);
#6 = PRODUCT_DEFINITION_FORMATION('','',#7);
#7 = PRODUCT('Open CASCADE STEP translator 7.6 1',
  'Open CASCADE STEP translator 7.6 1','',(#8));
#8 = PRODUCT_CONTEXT('',#2,'mechanical');
#9 = PRODUCT_DEFINITION_CONTEXT('part definition',#2,'design');
#10 = ADVANCED_BREP_SHAPE_REPRESENTATION('',(#11,#15),#315);
#11 = AXIS2_PLACEMENT_3D('',#12,#13,#14);
#12 = CARTESIAN_POINT('',(0.,0.,0.));
#13 = DIRECTION('',(0.,0.,1.));
#14 = DIRECTION('',(1.,0.,-0.));
#15 = MANIFOLD_SOLID_BREP('',#16);
#16 = CLOSED_SHELL('',(#17,#53,#81,#145,#167,#225,#237,#263,#289));
#17 = ADVANCED_FACE('',(#18),#48,.F.);
#18 = FACE_BOUND('',#19,.F.);
#19 = EDGE_LOOP('',(#20,#29,#36,#43));
#20 = ORIENTED_EDGE('',*,*,#21,.F.);
#21 = EDGE_CURVE('',#22,#24,#26,.T.);
#22 = VERTEX_POINT('',#23);
#23 = CARTESIAN_POINT('',(-42.8198979623,-42.8198979623,-2.140994898115)
  );
#24 = VERTEX_POINT('',#25);
#25 = CARTESIAN_POINT('',(-42.8198979623,-42.8198979623,2.140994898115)
  );
#26 = B_SPLINE_CURVE_WITH_KNOTS('',1,(#27,#28),.UNSPECIFIED.,.F.,.F.,(2,
    2),(0.,5.),.PIECEWISE_BEZIER_KNOTS.);
#27 = CARTESIAN_POINT('',(-42.8198979623,-42.8198979623,-2.140994898115)
  );
#28 = CARTESIAN_POINT('',(-42.8198979623,-42.8198979623,2.140994898115)
  );
#29 = ORIENTED_EDGE('',*,*,#30,.T.);
#30 = EDGE_CURVE('',#22,#31,#33,.T.);
#31 = VERTEX_POINT('',#32);
#32 = CARTESIAN_POINT('',(-42.8198979623,42.819897962301,-2.140994898115
    ));
#33 = B_SPLINE_CURVE_WITH_KNOTS('',1,(#34,#35),.UNSPECIFIED.,.F.,.F.,(2,
    2),(0.,100.),.PIECEWISE_BEZIER_KNOTS.);
#34 = CARTESIAN_POINT('',(-42.8198979623,-42.8198979623,-2.140994898115)
  );
#35 = CARTESIAN_POINT('',(-42.8198979623,42.819897962301,-2.140994898115
    ));
#36 = ORIENTED_EDGE('',*,*,#37,.T.);
#37 = EDGE_CURVE('',#31,#38,#40,.T.);
#38 = VERTEX_POINT('',#39);
#39 = CARTESIAN_POINT('',(-42.8198979623,42.819897962301,2.140994898115)
  );
#40 = B_SPLINE_CURVE_WITH_KNOTS('',1,(#41,#42),.UNSPECIFIED.,.F.,.F.,(2,
    2),(0.,5.),.PIECEWISE_BEZIER_KNOTS.);
#41 = CARTESIAN_POINT('',(-42.8198979623,42.819897962301,-2.140994898115
    ));
#42 = CARTESIAN_POINT('',(-42.8198979623,42.819897962301,2.140994898115)
  );
#43 = ORIENTED_EDGE('',*,*,#44,.F.);
#44 = EDGE_CURVE('',#24,#38,#45,.T.);
#45 = B_SPLINE_CURVE_WITH_KNOTS('',1,(#46,#47),.UNSPECIFIED.,.F.,.F.,(2,
    2),(0.,100.),.PIECEWISE_BEZIER_KNOTS.);
#46 = CARTESIAN_POINT('',(-42.8198979623,-42.8198979623,2.140994898115)
  );
#47 = CARTESIAN_POINT('',(-42.8198979623,42.819897962301,2.140994898115)
  );
#48 = B_SPLINE_SURFACE_WITH_KNOTS('',1,1,(
    (#49,#50)
    ,(#51,#52
  )),.UNSPECIFIED.,.F.,.F.,.F.,(2,2),(2,2),(0.,5.),(-100.,0.),
  .PIECEWISE_BEZIER_KNOTS.);
#49 = CARTESIAN_POINT('',(-42.8198979623,42.819897962301,-2.140994898115
    ));
#50 = CARTESIAN_POINT('',(-42.8198979623,-42.8198979623,-2.140994898115)
  );
#51 = CARTESIAN_POINT('',(-42.8198979623,42.819897962301,2.140994898115)
  );
#52 = CARTESIAN_POINT('',(-42.8198979623,-42.8198979623,2.140994898115)
  );
#53 = ADVANCED_FACE('',(#54),#76,.F.);
#54 = FACE_BOUND('',#55,.F.);
#55 = EDGE_LOOP('',(#56,#63,#64,#71));
#56 = ORIENTED_EDGE('',*,*,#57,.F.);
#57 = EDGE_CURVE('',#22,#58,#60,.T.);
#58 = VERTEX_POINT('',#59);
#59 = CARTESIAN_POINT('',(42.819897962301,-42.8198979623,-2.140994898115
    ));
#60 = B_SPLINE_CURVE_WITH_KNOTS('',1,(#61,#62),.UNSPECIFIED.,.F.,.F.,(2,
    2),(0.,100.),.PIECEWISE_BEZIER_KNOTS.);
#61 = CARTESIAN_POINT('',(-42.8198979623,-42.8198979623,-2.140994898115)
  );
#62 = CARTESIAN_POINT('',(42.819897962301,-42.8198979623,-2.140994898115
    ));
#63 = ORIENTED_EDGE('',*,*,#21,.T.);
#64 = ORIENTED_EDGE('',*,*,#65,.T.);
#65 = EDGE_CURVE('',#24,#66,#68,.T.);
#66 = VERTEX_POINT('',#67);
#67 = CARTESIAN_POINT('',(42.819897962301,-42.8198979623,2.140994898115)
  );
#68 = B_SPLINE_CURVE_WITH_KNOTS('',1,(#69,#70),.UNSPECIFIED.,.F.,.F.,(2,
    2),(0.,100.),.PIECEWISE_BEZIER_KNOTS.);
#69 = CARTESIAN_POINT('',(-42.8198979623,-42.8198979623,2.140994898115)
  );
#70 = CARTESIAN_POINT('',(42.819897962301,-42.8198979623,2.140994898115)
  );
#71 = ORIENTED_EDGE('',*,*,#72,.F.);
#72 = EDGE_CURVE('',#58,#66,#73,.T.);
#73 = B_SPLINE_CURVE_WITH_KNOTS('',1,(#74,#75),.UNSPECIFIED.,.F.,.F.,(2,
    2),(0.,5.),.PIECEWISE_BEZIER_KNOTS.);
#74 = CARTESIAN_POINT('',(42.819897962301,-42.8198979623,-2.140994898115
    ));
#75 = CARTESIAN_POINT('',(42.819897962301,-42.8198979623,2.140994898115)
  );
#76 = B_SPLINE_SURFACE_WITH_KNOTS('',1,1,(
    (#77,#78)
    ,(#79,#80)),.UNSPECIFIED.,.F.,.F.,.F.,(2,2),(2,2),(0.,5.),(0.,100.),
  .PIECEWISE_BEZIER_KNOTS.);
#77 = CARTESIAN_POINT('',(-42.8198979623,-42.8198979623,-2.140994898115)
  );
#78 = CARTESIAN_POINT('',(42.819897962301,-42.8198979623,-2.140994898115
    ));
#79 = CARTESIAN_POINT('',(-42.8198979623,-42.8198979623,2.140994898115)
  );
#80 = CARTESIAN_POINT('',(42.819897962301,-42.8198979623,2.140994898115)
  );
#81 = ADVANCED_FACE('',(#82,#98,#112,#126),#140,.T.);
#82 = FACE_BOUND('',#83,.T.);
#83 = EDGE_LOOP('',(#84,#85,#86,#93));
#84 = ORIENTED_EDGE('',*,*,#44,.F.);
#85 = ORIENTED_EDGE('',*,*,#65,.T.);
#86 = ORIENTED_EDGE('',*,*,#87,.T.);
#87 = EDGE_CURVE('',#66,#88,#90,.T.);
#88 = VERTEX_POINT('',#89);
#89 = CARTESIAN_POINT('',(42.819897962301,42.819897962301,2.140994898115
    ));
#90 = B_SPLINE_CURVE_WITH_KNOTS('',1,(#91,#92),.UNSPECIFIED.,.F.,.F.,(2,
    2),(0.,100.),.PIECEWISE_BEZIER_KNOTS.);
#91 = CARTESIAN_POINT('',(42.819897962301,-42.8198979623,2.140994898115)
  );
#92 = CARTESIAN_POINT('',(42.819897962301,42.819897962301,2.140994898115
    ));
#93 = ORIENTED_EDGE('',*,*,#94,.F.);
#94 = EDGE_CURVE('',#38,#88,#95,.T.);
#95 = B_SPLINE_CURVE_WITH_KNOTS('',1,(#96,#97),.UNSPECIFIED.,.F.,.F.,(2,
    2),(0.,100.),.PIECEWISE_BEZIER_KNOTS.);
#96 = CARTESIAN_POINT('',(-42.8198979623,42.819897962301,2.140994898115)
  );
#97 = CARTESIAN_POINT('',(42.819897962301,42.819897962301,2.140994898115
    ));
#98 = FACE_BOUND('',#99,.T.);
#99 = EDGE_LOOP('',(#100));
#100 = ORIENTED_EDGE('',*,*,#101,.T.);
#101 = EDGE_CURVE('',#102,#102,#104,.T.);
#102 = VERTEX_POINT('',#103);
#103 = CARTESIAN_POINT('',(-32.11492347172,-1.57317752938E-15,
    2.140994898115));
#104 = ( BOUNDED_CURVE() B_SPLINE_CURVE(2,(#105,#106,#107,#108,#109,#110
,#111),.UNSPECIFIED.,.T.,.F.) B_SPLINE_CURVE_WITH_KNOTS((1,2,2,2,2,1),(
    -2.094395102393,0.,2.094395102393,4.188790204786,6.28318530718,
8.377580409573),.UNSPECIFIED.) CURVE() GEOMETRIC_REPRESENTATION_ITEM() 
RATIONAL_B_SPLINE_CURVE((1.,0.5,1.,0.5,1.,0.5,1.)) REPRESENTATION_ITEM(
  '') );
#105 = CARTESIAN_POINT('',(-32.11492347172,0.,2.140994898115));
#106 = CARTESIAN_POINT('',(-32.11492347172,11.124935826843,
    2.140994898115));
#107 = CARTESIAN_POINT('',(-22.4804464302,5.562467913421,2.140994898115)
  );
#108 = CARTESIAN_POINT('',(-12.84596938869,1.57317752938E-15,
    2.140994898115));
#109 = CARTESIAN_POINT('',(-22.4804464302,-5.562467913421,2.140994898115
    ));
#110 = CARTESIAN_POINT('',(-32.11492347172,-11.12493582684,
    2.140994898115));
#111 = CARTESIAN_POINT('',(-32.11492347172,0.,2.140994898115));
#112 = FACE_BOUND('',#113,.T.);
#113 = EDGE_LOOP('',(#114));
#114 = ORIENTED_EDGE('',*,*,#115,.T.);
#115 = EDGE_CURVE('',#116,#116,#118,.T.);
#116 = VERTEX_POINT('',#117);
#117 = CARTESIAN_POINT('',(-12.84596938869,-3.146355058761E-15,
    2.140994898115));
#118 = ( BOUNDED_CURVE() B_SPLINE_CURVE(2,(#119,#120,#121,#122,#123,#124
,#125),.UNSPECIFIED.,.T.,.F.) B_SPLINE_CURVE_WITH_KNOTS((1,2,2,2,2,1),(
    -2.094395102393,0.,2.094395102393,4.188790204786,6.28318530718,
8.377580409573),.UNSPECIFIED.) CURVE() GEOMETRIC_REPRESENTATION_ITEM() 
RATIONAL_B_SPLINE_CURVE((1.,0.5,1.,0.5,1.,0.5,1.)) REPRESENTATION_ITEM(
  '') );
#119 = CARTESIAN_POINT('',(-12.84596938869,0.,2.140994898115));
#120 = CARTESIAN_POINT('',(-12.84596938869,22.249871653686,
    2.140994898115));
#121 = CARTESIAN_POINT('',(6.422984694345,11.124935826843,2.140994898115
    ));
#122 = CARTESIAN_POINT('',(25.69193877738,3.146355058761E-15,
    2.140994898115));
#123 = CARTESIAN_POINT('',(6.422984694345,-11.12493582684,2.140994898115
    ));
#124 = CARTESIAN_POINT('',(-12.84596938869,-22.24987165368,
    2.140994898115));
#125 = CARTESIAN_POINT('',(-12.84596938869,0.,2.140994898115));
#126 = FACE_BOUND('',#127,.T.);
#127 = EDGE_LOOP('',(#128));
#128 = ORIENTED_EDGE('',*,*,#129,.T.);
#129 = EDGE_CURVE('',#130,#130,#132,.T.);
#130 = VERTEX_POINT('',#131);
#131 = CARTESIAN_POINT('',(19.268954083035,-1.57317752938E-15,
    2.140994898115));
#132 = ( BOUNDED_CURVE() B_SPLINE_CURVE(2,(#133,#134,#135,#136,#137,#138
,#139),.UNSPECIFIED.,.T.,.F.) B_SPLINE_CURVE_WITH_KNOTS((1,2,2,2,2,1),(
    -2.094395102393,0.,2.094395102393,4.188790204786,6.28318530718,
8.377580409573),.UNSPECIFIED.) CURVE() GEOMETRIC_REPRESENTATION_ITEM() 
RATIONAL_B_SPLINE_CURVE((1.,0.5,1.,0.5,1.,0.5,1.)) REPRESENTATION_ITEM(
  '') );
#133 = CARTESIAN_POINT('',(19.268954083035,0.,2.140994898115));
#134 = CARTESIAN_POINT('',(19.268954083035,11.124935826843,
    2.140994898115));
#135 = CARTESIAN_POINT('',(28.903431124553,5.562467913421,2.140994898115
    ));
#136 = CARTESIAN_POINT('',(38.537908166071,1.57317752938E-15,
    2.140994898115));
#137 = CARTESIAN_POINT('',(28.903431124553,-5.562467913421,
    2.140994898115));
#138 = CARTESIAN_POINT('',(19.268954083035,-11.12493582684,
    2.140994898115));
#139 = CARTESIAN_POINT('',(19.268954083035,0.,2.140994898115));
#140 = B_SPLINE_SURFACE_WITH_KNOTS('',1,1,(
    (#141,#142)
    ,(#143,#144
    )),.UNSPECIFIED.,.F.,.F.,.F.,(2,2),(2,2),(0.,100.),(0.,100.),
  .PIECEWISE_BEZIER_KNOTS.);
#141 = CARTESIAN_POINT('',(-42.8198979623,-42.8198979623,2.140994898115)
  );
#142 = CARTESIAN_POINT('',(-42.8198979623,42.819897962301,2.140994898115
    ));
#143 = CARTESIAN_POINT('',(42.819897962301,-42.8198979623,2.140994898115
    ));
#144 = CARTESIAN_POINT('',(42.819897962301,42.819897962301,
    2.140994898115));
#145 = ADVANCED_FACE('',(#146),#162,.T.);
#146 = FACE_BOUND('',#147,.T.);
#147 = EDGE_LOOP('',(#148,#155,#156,#157));
#148 = ORIENTED_EDGE('',*,*,#149,.F.);
#149 = EDGE_CURVE('',#31,#150,#152,.T.);
#150 = VERTEX_POINT('',#151);
#151 = CARTESIAN_POINT('',(42.819897962301,42.819897962301,
    -2.140994898115));
#152 = B_SPLINE_CURVE_WITH_KNOTS('',1,(#153,#154),.UNSPECIFIED.,.F.,.F.,
  (2,2),(0.,100.),.PIECEWISE_BEZIER_KNOTS.);
#153 = CARTESIAN_POINT('',(-42.8198979623,42.819897962301,
    -2.140994898115));
#154 = CARTESIAN_POINT('',(42.819897962301,42.819897962301,
    -2.140994898115));
#155 = ORIENTED_EDGE('',*,*,#37,.T.);
#156 = ORIENTED_EDGE('',*,*,#94,.T.);
#157 = ORIENTED_EDGE('',*,*,#158,.F.);
#158 = EDGE_CURVE('',#150,#88,#159,.T.);
#159 = B_SPLINE_CURVE_WITH_KNOTS('',1,(#160,#161),.UNSPECIFIED.,.F.,.F.,
  (2,2),(0.,5.),.PIECEWISE_BEZIER_KNOTS.);
#160 = CARTESIAN_POINT('',(42.819897962301,42.819897962301,
    -2.140994898115));
#161 = CARTESIAN_POINT('',(42.819897962301,42.819897962301,
    2.140994898115));
#162 = B_SPLINE_SURFACE_WITH_KNOTS('',1,1,(
    (#163,#164)
    ,(#165,#166
    )),.UNSPECIFIED.,.F.,.F.,.F.,(2,2),(2,2),(0.,5.),(0.,100.),
  .PIECEWISE_BEZIER_KNOTS.);
#163 = CARTESIAN_POINT('',(-42.8198979623,42.819897962301,
    -2.140994898115));
#164 = CARTESIAN_POINT('',(42.819897962301,42.819897962301,
    -2.140994898115));
#165 = CARTESIAN_POINT('',(-42.8198979623,42.819897962301,2.140994898115
    ));
#166 = CARTESIAN_POINT('',(42.819897962301,42.819897962301,
    2.140994898115));
#167 = ADVANCED_FACE('',(#168,#178,#192,#206),#220,.F.);
#168 = FACE_BOUND('',#169,.F.);
#169 = EDGE_LOOP('',(#170,#171,#172,#177));
#170 = ORIENTED_EDGE('',*,*,#30,.F.);
#171 = ORIENTED_EDGE('',*,*,#57,.T.);
#172 = ORIENTED_EDGE('',*,*,#173,.T.);
#173 = EDGE_CURVE('',#58,#150,#174,.T.);
#174 = B_SPLINE_CURVE_WITH_KNOTS('',1,(#175,#176),.UNSPECIFIED.,.F.,.F.,
  (2,2),(0.,100.),.PIECEWISE_BEZIER_KNOTS.);
#175 = CARTESIAN_POINT('',(42.819897962301,-42.8198979623,
    -2.140994898115));
#176 = CARTESIAN_POINT('',(42.819897962301,42.819897962301,
    -2.140994898115));
#177 = ORIENTED_EDGE('',*,*,#149,.F.);
#178 = FACE_BOUND('',#179,.F.);
#179 = EDGE_LOOP('',(#180));
#180 = ORIENTED_EDGE('',*,*,#181,.T.);
#181 = EDGE_CURVE('',#182,#182,#184,.T.);
#182 = VERTEX_POINT('',#183);
#183 = CARTESIAN_POINT('',(-32.11492347172,-1.57317752938E-15,
    -2.140994898115));
#184 = ( BOUNDED_CURVE() B_SPLINE_CURVE(2,(#185,#186,#187,#188,#189,#190
,#191),.UNSPECIFIED.,.T.,.F.) B_SPLINE_CURVE_WITH_KNOTS((1,2,2,2,2,1),(
    -2.094395102393,0.,2.094395102393,4.188790204786,6.28318530718,
8.377580409573),.UNSPECIFIED.) CURVE() GEOMETRIC_REPRESENTATION_ITEM() 
RATIONAL_B_SPLINE_CURVE((1.,0.5,1.,0.5,1.,0.5,1.)) REPRESENTATION_ITEM(
  '') );
#185 = CARTESIAN_POINT('',(-32.11492347172,0.,-2.140994898115));
#186 = CARTESIAN_POINT('',(-32.11492347172,11.124935826843,
    -2.140994898115));
#187 = CARTESIAN_POINT('',(-22.4804464302,5.562467913421,-2.140994898115
    ));
#188 = CARTESIAN_POINT('',(-12.84596938869,1.57317752938E-15,
    -2.140994898115));
#189 = CARTESIAN_POINT('',(-22.4804464302,-5.562467913421,
    -2.140994898115));
#190 = CARTESIAN_POINT('',(-32.11492347172,-11.12493582684,
    -2.140994898115));
#191 = CARTESIAN_POINT('',(-32.11492347172,0.,-2.140994898115));
#192 = FACE_BOUND('',#193,.F.);
#193 = EDGE_LOOP('',(#194));
#194 = ORIENTED_EDGE('',*,*,#195,.T.);
#195 = EDGE_CURVE('',#196,#196,#198,.T.);
#196 = VERTEX_POINT('',#197);
#197 = CARTESIAN_POINT('',(-12.84596938869,-3.146355058761E-15,
    -2.140994898115));
#198 = ( BOUNDED_CURVE() B_SPLINE_CURVE(2,(#199,#200,#201,#202,#203,#204
,#205),.UNSPECIFIED.,.T.,.F.) B_SPLINE_CURVE_WITH_KNOTS((1,2,2,2,2,1),(
    -2.094395102393,0.,2.094395102393,4.188790204786,6.28318530718,
8.377580409573),.UNSPECIFIED.) CURVE() GEOMETRIC_REPRESENTATION_ITEM() 
RATIONAL_B_SPLINE_CURVE((1.,0.5,1.,0.5,1.,0.5,1.)) REPRESENTATION_ITEM(
  '') );
#199 = CARTESIAN_POINT('',(-12.84596938869,0.,-2.140994898115));
#200 = CARTESIAN_POINT('',(-12.84596938869,22.249871653686,
    -2.140994898115));
#201 = CARTESIAN_POINT('',(6.422984694345,11.124935826843,
    -2.140994898115));
#202 = CARTESIAN_POINT('',(25.69193877738,3.146355058761E-15,
    -2.140994898115));
#203 = CARTESIAN_POINT('',(6.422984694345,-11.12493582684,
    -2.140994898115));
#204 = CARTESIAN_POINT('',(-12.84596938869,-22.24987165368,
    -2.140994898115));
#205 = CARTESIAN_POINT('',(-12.84596938869,0.,-2.140994898115));
#206 = FACE_BOUND('',#207,.F.);
#207 = EDGE_LOOP('',(#208));
#208 = ORIENTED_EDGE('',*,*,#209,.T.);
#209 = EDGE_CURVE('',#210,#210,#212,.T.);
#210 = VERTEX_POINT('',#211);
#211 = CARTESIAN_POINT('',(19.268954083035,-1.57317752938E-15,
    -2.140994898115));
#212 = ( BOUNDED_CURVE() B_SPLINE_CURVE(2,(#213,#214,#215,#216,#217,#218
,#219),.UNSPECIFIED.,.T.,.F.) B_SPLINE_CURVE_WITH_KNOTS((1,2,2,2,2,1),(
    -2.094395102393,0.,2.094395102393,4.188790204786,6.28318530718,
8.377580409573),.UNSPECIFIED.) CURVE() GEOMETRIC_REPRESENTATION_ITEM() 
RATIONAL_B_SPLINE_CURVE((1.,0.5,1.,0.5,1.,0.5,1.)) REPRESENTATION_ITEM(
  '') );
#213 = CARTESIAN_POINT('',(19.268954083035,0.,-2.140994898115));
#214 = CARTESIAN_POINT('',(19.268954083035,11.124935826843,
    -2.140994898115));
#215 = CARTESIAN_POINT('',(28.903431124553,5.562467913421,
    -2.140994898115));
#216 = CARTESIAN_POINT('',(38.537908166071,1.57317752938E-15,
    -2.140994898115));
#217 = CARTESIAN_POINT('',(28.903431124553,-5.562467913421,
    -2.140994898115));
#218 = CARTESIAN_POINT('',(19.268954083035,-11.12493582684,
    -2.140994898115));
#219 = CARTESIAN_POINT('',(19.268954083035,0.,-2.140994898115));
#220 = B_SPLINE_SURFACE_WITH_KNOTS('',1,1,(
    (#221,#222)
    ,(#223,#224
    )),.UNSPECIFIED.,.F.,.F.,.F.,(2,2),(2,2),(0.,100.),(0.,100.),
  .PIECEWISE_BEZIER_KNOTS.);
#221 = CARTESIAN_POINT('',(-42.8198979623,-42.8198979623,-2.140994898115
    ));
#222 = CARTESIAN_POINT('',(-42.8198979623,42.819897962301,
    -2.140994898115));
#223 = CARTESIAN_POINT('',(42.819897962301,-42.8198979623,
    -2.140994898115));
#224 = CARTESIAN_POINT('',(42.819897962301,42.819897962301,
    -2.140994898115));
#225 = ADVANCED_FACE('',(#226),#232,.T.);
#226 = FACE_BOUND('',#227,.T.);
#227 = EDGE_LOOP('',(#228,#229,#230,#231));
#228 = ORIENTED_EDGE('',*,*,#72,.F.);
#229 = ORIENTED_EDGE('',*,*,#173,.T.);
#230 = ORIENTED_EDGE('',*,*,#158,.T.);
#231 = ORIENTED_EDGE('',*,*,#87,.F.);
#232 = B_SPLINE_SURFACE_WITH_KNOTS('',1,1,(
    (#233,#234)
    ,(#235,#236
    )),.UNSPECIFIED.,.F.,.F.,.F.,(2,2),(2,2),(0.,5.),(-100.,0.),
  .PIECEWISE_BEZIER_KNOTS.);
#233 = CARTESIAN_POINT('',(42.819897962301,42.819897962301,
    -2.140994898115));
#234 = CARTESIAN_POINT('',(42.819897962301,-42.8198979623,
    -2.140994898115));
#235 = CARTESIAN_POINT('',(42.819897962301,42.819897962301,
    2.140994898115));
#236 = CARTESIAN_POINT('',(42.819897962301,-42.8198979623,2.140994898115
    ));
#237 = ADVANCED_FACE('',(#238),#248,.F.);
#238 = FACE_BOUND('',#239,.F.);
#239 = EDGE_LOOP('',(#240,#241,#246,#247));
#240 = ORIENTED_EDGE('',*,*,#181,.F.);
#241 = ORIENTED_EDGE('',*,*,#242,.F.);
#242 = EDGE_CURVE('',#102,#182,#243,.T.);
#243 = B_SPLINE_CURVE_WITH_KNOTS('',1,(#244,#245),.UNSPECIFIED.,.F.,.F.,
  (2,2),(0.,5.),.PIECEWISE_BEZIER_KNOTS.);
#244 = CARTESIAN_POINT('',(-32.11492347172,-1.57317752938E-15,
    2.140994898115));
#245 = CARTESIAN_POINT('',(-32.11492347172,-1.57317752938E-15,
    -2.140994898115));
#246 = ORIENTED_EDGE('',*,*,#101,.T.);
#247 = ORIENTED_EDGE('',*,*,#242,.T.);
#248 = ( BOUNDED_SURFACE() B_SPLINE_SURFACE(2,1,(
    (#249,#250)
    ,(#251,#252)
    ,(#253,#254)
    ,(#255,#256)
    ,(#257,#258)
    ,(#259,#260)
,(#261,#262
    )),.UNSPECIFIED.,.T.,.F.,.F.) B_SPLINE_SURFACE_WITH_KNOTS((1,2,2,2,2
    ,1),(2,2),(-2.094395102393,0.,2.094395102393,4.188790204786,
    6.28318530718,8.377580409573),(0.,5.),.UNSPECIFIED.) 
GEOMETRIC_REPRESENTATION_ITEM() RATIONAL_B_SPLINE_SURFACE((
    (1.,1.)
    ,(0.5,0.5)
    ,(1.,1.)
    ,(0.5,0.5)
    ,(1.,1.)
    ,(0.5,0.5)
,(1.,1.))) REPRESENTATION_ITEM('') SURFACE() );
#249 = CARTESIAN_POINT('',(-32.11492347172,0.,2.140994898115));
#250 = CARTESIAN_POINT('',(-32.11492347172,0.,-2.140994898115));
#251 = CARTESIAN_POINT('',(-32.11492347172,11.124935826843,
    2.140994898115));
#252 = CARTESIAN_POINT('',(-32.11492347172,11.124935826843,
    -2.140994898115));
#253 = CARTESIAN_POINT('',(-22.4804464302,5.562467913421,2.140994898115)
  );
#254 = CARTESIAN_POINT('',(-22.4804464302,5.562467913421,-2.140994898115
    ));
#255 = CARTESIAN_POINT('',(-12.84596938869,1.57317752938E-15,
    2.140994898115));
#256 = CARTESIAN_POINT('',(-12.84596938869,1.57317752938E-15,
    -2.140994898115));
#257 = CARTESIAN_POINT('',(-22.4804464302,-5.562467913421,2.140994898115
    ));
#258 = CARTESIAN_POINT('',(-22.4804464302,-5.562467913421,
    -2.140994898115));
#259 = CARTESIAN_POINT('',(-32.11492347172,-11.12493582684,
    2.140994898115));
#260 = CARTESIAN_POINT('',(-32.11492347172,-11.12493582684,
    -2.140994898115));
#261 = CARTESIAN_POINT('',(-32.11492347172,0.,2.140994898115));
#262 = CARTESIAN_POINT('',(-32.11492347172,0.,-2.140994898115));
#263 = ADVANCED_FACE('',(#264),#274,.F.);
#264 = FACE_BOUND('',#265,.F.);
#265 = EDGE_LOOP('',(#266,#267,#272,#273));
#266 = ORIENTED_EDGE('',*,*,#195,.F.);
#267 = ORIENTED_EDGE('',*,*,#268,.F.);
#268 = EDGE_CURVE('',#116,#196,#269,.T.);
#269 = B_SPLINE_CURVE_WITH_KNOTS('',1,(#270,#271),.UNSPECIFIED.,.F.,.F.,
  (2,2),(0.,5.),.PIECEWISE_BEZIER_KNOTS.);
#270 = CARTESIAN_POINT('',(-12.84596938869,-3.146355058761E-15,
    2.140994898115));
#271 = CARTESIAN_POINT('',(-12.84596938869,-3.146355058761E-15,
    -2.140994898115));
#272 = ORIENTED_EDGE('',*,*,#115,.T.);
#273 = ORIENTED_EDGE('',*,*,#268,.T.);
#274 = ( BOUNDED_SURFACE() B_SPLINE_SURFACE(2,1,(
    (#275,#276)
    ,(#277,#278)
    ,(#279,#280)
    ,(#281,#282)
    ,(#283,#284)
    ,(#285,#286)
,(#287,#288
    )),.UNSPECIFIED.,.T.,.F.,.F.) B_SPLINE_SURFACE_WITH_KNOTS((1,2,2,2,2
    ,1),(2,2),(-2.094395102393,0.,2.094395102393,4.188790204786,
    6.28318530718,8.377580409573),(0.,5.),.UNSPECIFIED.) 
GEOMETRIC_REPRESENTATION_ITEM() RATIONAL_B_SPLINE_SURFACE((
    (1.,1.)
    ,(0.5,0.5)
    ,(1.,1.)
    ,(0.5,0.5)
    ,(1.,1.)
    ,(0.5,0.5)
,(1.,1.))) REPRESENTATION_ITEM('') SURFACE() );
#275 = CARTESIAN_POINT('',(-12.84596938869,0.,2.140994898115));
#276 = CARTESIAN_POINT('',(-12.84596938869,0.,-2.140994898115));
#277 = CARTESIAN_POINT('',(-12.84596938869,22.249871653686,
    2.140994898115));
#278 = CARTESIAN_POINT('',(-12.84596938869,22.249871653686,
    -2.140994898115));
#279 = CARTESIAN_POINT('',(6.422984694345,11.124935826843,2.140994898115
    ));
#280 = CARTESIAN_POINT('',(6.422984694345,11.124935826843,
    -2.140994898115));
#281 = CARTESIAN_POINT('',(25.69193877738,3.146355058761E-15,
    2.140994898115));
#282 = CARTESIAN_POINT('',(25.69193877738,3.146355058761E-15,
    -2.140994898115));
#283 = CARTESIAN_POINT('',(6.422984694345,-11.12493582684,2.140994898115
    ));
#284 = CARTESIAN_POINT('',(6.422984694345,-11.12493582684,
    -2.140994898115));
#285 = CARTESIAN_POINT('',(-12.84596938869,-22.24987165368,
    2.140994898115));
#286 = CARTESIAN_POINT('',(-12.84596938869,-22.24987165368,
    -2.140994898115));
#287 = CARTESIAN_POINT('',(-12.84596938869,0.,2.140994898115));
#288 = CARTESIAN_POINT('',(-12.84596938869,0.,-2.140994898115));
#289 = ADVANCED_FACE('',(#290),#300,.F.);
#290 = FACE_BOUND('',#291,.F.);
#291 = EDGE_LOOP('',(#292,#293,#298,#299));
#292 = ORIENTED_EDGE('',*,*,#209,.F.);
#293 = ORIENTED_EDGE('',*,*,#294,.F.);
#294 = EDGE_CURVE('',#130,#210,#295,.T.);
#295 = B_SPLINE_CURVE_WITH_KNOTS('',1,(#296,#297),.UNSPECIFIED.,.F.,.F.,
  (2,2),(0.,5.),.PIECEWISE_BEZIER_KNOTS.);
#296 = CARTESIAN_POINT('',(19.268954083035,-1.57317752938E-15,
    2.140994898115));
#297 = CARTESIAN_POINT('',(19.268954083035,-1.57317752938E-15,
    -2.140994898115));
#298 = ORIENTED_EDGE('',*,*,#129,.T.);
#299 = ORIENTED_EDGE('',*,*,#294,.T.);
#300 = ( BOUNDED_SURFACE() B_SPLINE_SURFACE(2,1,(
    (#301,#302)
    ,(#303,#304)
    ,(#305,#306)
    ,(#307,#308)
    ,(#309,#310)
    ,(#311,#312)
,(#313,#314
    )),.UNSPECIFIED.,.T.,.F.,.F.) B_SPLINE_SURFACE_WITH_KNOTS((1,2,2,2,2
    ,1),(2,2),(-2.094395102393,0.,2.094395102393,4.188790204786,
    6.28318530718,8.377580409573),(0.,5.),.UNSPECIFIED.) 
GEOMETRIC_REPRESENTATION_ITEM() RATIONAL_B_SPLINE_SURFACE((
    (1.,1.)
    ,(0.5,0.5)
    ,(1.,1.)
    ,(0.5,0.5)
    ,(1.,1.)
    ,(0.5,0.5)
,(1.,1.))) REPRESENTATION_ITEM('') SURFACE() );
#301 = CARTESIAN_POINT('',(19.268954083035,0.,2.140994898115));
#302 = CARTESIAN_POINT('',(19.268954083035,0.,-2.140994898115));
#303 = CARTESIAN_POINT('',(19.268954083035,11.124935826843,
    2.140994898115));
#304 = CARTESIAN_POINT('',(19.268954083035,11.124935826843,
    -2.140994898115));
#305 = CARTESIAN_POINT('',(28.903431124553,5.562467913421,2.140994898115
    ));
#306 = CARTESIAN_POINT('',(28.903431124553,5.562467913421,
    -2.140994898115));
#307 = CARTESIAN_POINT('',(38.537908166071,1.57317752938E-15,
    2.140994898115));
#308 = CARTESIAN_POINT('',(38.537908166071,1.57317752938E-15,
    -2.140994898115));
#309 = CARTESIAN_POINT('',(28.903431124553,-5.562467913421,
    2.140994898115));
#310 = CARTESIAN_POINT('',(28.903431124553,-5.562467913421,
    -2.140994898115));
#311 = CARTESIAN_POINT('',(19.268954083035,-11.12493582684,
    2.140994898115));
#312 = CARTESIAN_POINT('',(19.268954083035,-11.12493582684,
    -2.140994898115));
#313 = CARTESIAN_POINT('',(19.268954083035,0.,2.140994898115));
#314 = CARTESIAN_POINT('',(19.268954083035,0.,-2.140994898115));
#315 = ( GEOMETRIC_REPRESENTATION_CONTEXT(3) 
GLOBAL_UNCERTAINTY_ASSIGNED_CONTEXT((#319)) GLOBAL_UNIT_ASSIGNED_CONTEXT
((#316,#317,#318)) REPRESENTATION_CONTEXT('Context #1',
  '3D Context with UNIT and UNCERTAINTY') );
#316 = ( LENGTH_UNIT() NAMED_UNIT(*) SI_UNIT(.MILLI.,.METRE.) );
#317 = ( NAMED_UNIT(*) PLANE_ANGLE_UNIT() SI_UNIT($,.RADIAN.) );
#318 = ( NAMED_UNIT(*) SI_UNIT($,.STERADIAN.) SOLID_ANGLE_UNIT() );
#319 = UNCERTAINTY_MEASURE_WITH_UNIT(LENGTH_MEASURE(1.E-07),#316,
  'distance_accuracy_value','confusion accuracy');
#320 = PRODUCT_RELATED_PRODUCT_CATEGORY('part',$,(#7));
ENDSEC;
END-ISO-10303-21;
