ISO-10303-21;
HEADER;
FILE_DESCRIPTION(('FreeCAD Model'),'2;1');
FILE_NAME('Open CASCADE Shape Model','2025-05-02T02:38:04',('FreeCAD'),(
    'FreeCAD'),'Open CASCADE STEP processor 7.6','FreeCAD','Unknown');
FILE_SCHEMA(('AUTOMOTIVE_DESIGN { 1 0 10303 214 1 1 1 1 }'));
ENDSEC;
DATA;
#1 = APPLICATION_PROTOCOL_DEFINITION('international standard',
  'automotive_design',2000,#2);
#2 = APPLICATION_CONTEXT(
  'core data for automotive mechanical design processes');
#3 = SHAPE_DEFINITION_REPRESENTATION(#4,#10);
#4 = PRODUCT_DEFINITION_SHAPE('','',#5);
#5 = PRODUCT_DEFINITION('design','',#6,#9);
#6 = PRODUCT_DEFINITION_FORMATION('','',#7);
#7 = PRODUCT('Open CASCADE STEP translator 7.6 1',
  'Open CASCADE STEP translator 7.6 1','',(#8));
#8 = PRODUCT_CONTEXT('',#2,'mechanical');
#9 = PRODUCT_DEFINITION_CONTEXT('part definition',#2,'design');
#10 = ADVANCED_BREP_SHAPE_REPRESENTATION('',(#11,#15),#393);
#11 = AXIS2_PLACEMENT_3D('',#12,#13,#14);
#12 = CARTESIAN_POINT('',(0.,0.,0.));
#13 = DIRECTION('',(0.,0.,1.));
#14 = DIRECTION('',(1.,0.,-0.));
#15 = MANIFOLD_SOLID_BREP('',#16);
#16 = CLOSED_SHELL('',(#17,#53,#81,#109,#137,#165,#193,#221,#249,#277,
    #305,#333,#353,#373));
#17 = ADVANCED_FACE('',(#18),#48,.F.);
#18 = FACE_BOUND('',#19,.T.);
#19 = EDGE_LOOP('',(#20,#29,#36,#43));
#20 = ORIENTED_EDGE('',*,*,#21,.T.);
#21 = EDGE_CURVE('',#22,#24,#26,.T.);
#22 = VERTEX_POINT('',#23);
#23 = CARTESIAN_POINT('',(45.965810208562,38.611280575192,0.));
#24 = VERTEX_POINT('',#25);
#25 = CARTESIAN_POINT('',(45.965810208562,45.965810208562,0.));
#26 = B_SPLINE_CURVE_WITH_KNOTS('',1,(#27,#28),.UNSPECIFIED.,.F.,.F.,(2,
    2),(-8.,0.),.PIECEWISE_BEZIER_KNOTS.);
#27 = CARTESIAN_POINT('',(45.965810208562,38.611280575192,0.));
#28 = CARTESIAN_POINT('',(45.965810208562,45.965810208562,0.));
#29 = ORIENTED_EDGE('',*,*,#30,.F.);
#30 = EDGE_CURVE('',#31,#24,#33,.T.);
#31 = VERTEX_POINT('',#32);
#32 = CARTESIAN_POINT('',(45.965810208562,45.965810208562,
    373.61010537519));
#33 = B_SPLINE_CURVE_WITH_KNOTS('',1,(#34,#35),.UNSPECIFIED.,.F.,.F.,(2,
    2),(-0.,406.4),.PIECEWISE_BEZIER_KNOTS.);
#34 = CARTESIAN_POINT('',(45.965810208562,45.965810208562,
    373.61010537519));
#35 = CARTESIAN_POINT('',(45.965810208562,45.965810208562,0.));
#36 = ORIENTED_EDGE('',*,*,#37,.F.);
#37 = EDGE_CURVE('',#38,#31,#40,.T.);
#38 = VERTEX_POINT('',#39);
#39 = CARTESIAN_POINT('',(45.965810208562,38.611280575192,
    373.61010537519));
#40 = B_SPLINE_CURVE_WITH_KNOTS('',1,(#41,#42),.UNSPECIFIED.,.F.,.F.,(2,
    2),(-8.,0.),.PIECEWISE_BEZIER_KNOTS.);
#41 = CARTESIAN_POINT('',(45.965810208562,38.611280575192,
    373.61010537519));
#42 = CARTESIAN_POINT('',(45.965810208562,45.965810208562,
    373.61010537519));
#43 = ORIENTED_EDGE('',*,*,#44,.T.);
#44 = EDGE_CURVE('',#38,#22,#45,.T.);
#45 = B_SPLINE_CURVE_WITH_KNOTS('',1,(#46,#47),.UNSPECIFIED.,.F.,.F.,(2,
    2),(-0.,406.4),.PIECEWISE_BEZIER_KNOTS.);
#46 = CARTESIAN_POINT('',(45.965810208562,38.611280575192,
    373.61010537519));
#47 = CARTESIAN_POINT('',(45.965810208562,38.611280575192,0.));
#48 = B_SPLINE_SURFACE_WITH_KNOTS('',1,1,(
    (#49,#50)
    ,(#51,#52
    )),.UNSPECIFIED.,.F.,.F.,.F.,(2,2),(2,2),(-406.4,0.),(-8.,0.),
  .PIECEWISE_BEZIER_KNOTS.);
#49 = CARTESIAN_POINT('',(45.965810208562,38.611280575192,0.));
#50 = CARTESIAN_POINT('',(45.965810208562,45.965810208562,0.));
#51 = CARTESIAN_POINT('',(45.965810208562,38.611280575192,
    373.61010537519));
#52 = CARTESIAN_POINT('',(45.965810208562,45.965810208562,
    373.61010537519));
#53 = ADVANCED_FACE('',(#54),#76,.F.);
#54 = FACE_BOUND('',#55,.T.);
#55 = EDGE_LOOP('',(#56,#63,#70,#75));
#56 = ORIENTED_EDGE('',*,*,#57,.T.);
#57 = EDGE_CURVE('',#24,#58,#60,.T.);
#58 = VERTEX_POINT('',#59);
#59 = CARTESIAN_POINT('',(-45.96581020856,45.965810208562,0.));
#60 = B_SPLINE_CURVE_WITH_KNOTS('',1,(#61,#62),.UNSPECIFIED.,.F.,.F.,(2,
    2),(-100.,-0.),.PIECEWISE_BEZIER_KNOTS.);
#61 = CARTESIAN_POINT('',(45.965810208562,45.965810208562,0.));
#62 = CARTESIAN_POINT('',(-45.96581020856,45.965810208562,0.));
#63 = ORIENTED_EDGE('',*,*,#64,.F.);
#64 = EDGE_CURVE('',#65,#58,#67,.T.);
#65 = VERTEX_POINT('',#66);
#66 = CARTESIAN_POINT('',(-45.96581020856,45.965810208562,
    373.61010537519));
#67 = B_SPLINE_CURVE_WITH_KNOTS('',1,(#68,#69),.UNSPECIFIED.,.F.,.F.,(2,
    2),(-0.,406.4),.PIECEWISE_BEZIER_KNOTS.);
#68 = CARTESIAN_POINT('',(-45.96581020856,45.965810208562,
    373.61010537519));
#69 = CARTESIAN_POINT('',(-45.96581020856,45.965810208562,0.));
#70 = ORIENTED_EDGE('',*,*,#71,.F.);
#71 = EDGE_CURVE('',#31,#65,#72,.T.);
#72 = B_SPLINE_CURVE_WITH_KNOTS('',1,(#73,#74),.UNSPECIFIED.,.F.,.F.,(2,
    2),(-100.,-0.),.PIECEWISE_BEZIER_KNOTS.);
#73 = CARTESIAN_POINT('',(45.965810208562,45.965810208562,
    373.61010537519));
#74 = CARTESIAN_POINT('',(-45.96581020856,45.965810208562,
    373.61010537519));
#75 = ORIENTED_EDGE('',*,*,#30,.T.);
#76 = B_SPLINE_SURFACE_WITH_KNOTS('',1,1,(
    (#77,#78)
    ,(#79,#80
    )),.UNSPECIFIED.,.F.,.F.,.F.,(2,2),(2,2),(0.,406.4),(0.,100.),
  .PIECEWISE_BEZIER_KNOTS.);
#77 = CARTESIAN_POINT('',(-45.96581020856,45.965810208562,
    373.61010537519));
#78 = CARTESIAN_POINT('',(45.965810208562,45.965810208562,
    373.61010537519));
#79 = CARTESIAN_POINT('',(-45.96581020856,45.965810208562,0.));
#80 = CARTESIAN_POINT('',(45.965810208562,45.965810208562,0.));
#81 = ADVANCED_FACE('',(#82),#104,.F.);
#82 = FACE_BOUND('',#83,.T.);
#83 = EDGE_LOOP('',(#84,#91,#98,#103));
#84 = ORIENTED_EDGE('',*,*,#85,.T.);
#85 = EDGE_CURVE('',#58,#86,#88,.T.);
#86 = VERTEX_POINT('',#87);
#87 = CARTESIAN_POINT('',(-45.96581020856,38.611280575192,0.));
#88 = B_SPLINE_CURVE_WITH_KNOTS('',1,(#89,#90),.UNSPECIFIED.,.F.,.F.,(2,
    2),(0.,8.),.PIECEWISE_BEZIER_KNOTS.);
#89 = CARTESIAN_POINT('',(-45.96581020856,45.965810208562,0.));
#90 = CARTESIAN_POINT('',(-45.96581020856,38.611280575192,0.));
#91 = ORIENTED_EDGE('',*,*,#92,.F.);
#92 = EDGE_CURVE('',#93,#86,#95,.T.);
#93 = VERTEX_POINT('',#94);
#94 = CARTESIAN_POINT('',(-45.96581020856,38.611280575192,
    373.61010537519));
#95 = B_SPLINE_CURVE_WITH_KNOTS('',1,(#96,#97),.UNSPECIFIED.,.F.,.F.,(2,
    2),(-0.,406.4),.PIECEWISE_BEZIER_KNOTS.);
#96 = CARTESIAN_POINT('',(-45.96581020856,38.611280575192,
    373.61010537519));
#97 = CARTESIAN_POINT('',(-45.96581020856,38.611280575192,0.));
#98 = ORIENTED_EDGE('',*,*,#99,.F.);
#99 = EDGE_CURVE('',#65,#93,#100,.T.);
#100 = B_SPLINE_CURVE_WITH_KNOTS('',1,(#101,#102),.UNSPECIFIED.,.F.,.F.,
  (2,2),(0.,8.),.PIECEWISE_BEZIER_KNOTS.);
#101 = CARTESIAN_POINT('',(-45.96581020856,45.965810208562,
    373.61010537519));
#102 = CARTESIAN_POINT('',(-45.96581020856,38.611280575192,
    373.61010537519));
#103 = ORIENTED_EDGE('',*,*,#64,.T.);
#104 = B_SPLINE_SURFACE_WITH_KNOTS('',1,1,(
    (#105,#106)
    ,(#107,#108
    )),.UNSPECIFIED.,.F.,.F.,.F.,(2,2),(2,2),(-0.,406.4),(-8.,0.),
  .PIECEWISE_BEZIER_KNOTS.);
#105 = CARTESIAN_POINT('',(-45.96581020856,38.611280575192,
    373.61010537519));
#106 = CARTESIAN_POINT('',(-45.96581020856,45.965810208562,
    373.61010537519));
#107 = CARTESIAN_POINT('',(-45.96581020856,38.611280575192,0.));
#108 = CARTESIAN_POINT('',(-45.96581020856,45.965810208562,0.));
#109 = ADVANCED_FACE('',(#110),#132,.F.);
#110 = FACE_BOUND('',#111,.T.);
#111 = EDGE_LOOP('',(#112,#119,#126,#131));
#112 = ORIENTED_EDGE('',*,*,#113,.T.);
#113 = EDGE_CURVE('',#86,#114,#116,.T.);
#114 = VERTEX_POINT('',#115);
#115 = CARTESIAN_POINT('',(-2.757948612514,38.611280575192,0.));
#116 = B_SPLINE_CURVE_WITH_KNOTS('',1,(#117,#118),.UNSPECIFIED.,.F.,.F.,
  (2,2),(0.,47.),.PIECEWISE_BEZIER_KNOTS.);
#117 = CARTESIAN_POINT('',(-45.96581020856,38.611280575192,0.));
#118 = CARTESIAN_POINT('',(-2.757948612514,38.611280575192,0.));
#119 = ORIENTED_EDGE('',*,*,#120,.F.);
#120 = EDGE_CURVE('',#121,#114,#123,.T.);
#121 = VERTEX_POINT('',#122);
#122 = CARTESIAN_POINT('',(-2.757948612514,38.611280575192,
    373.61010537519));
#123 = B_SPLINE_CURVE_WITH_KNOTS('',1,(#124,#125),.UNSPECIFIED.,.F.,.F.,
  (2,2),(-0.,406.4),.PIECEWISE_BEZIER_KNOTS.);
#124 = CARTESIAN_POINT('',(-2.757948612514,38.611280575192,
    373.61010537519));
#125 = CARTESIAN_POINT('',(-2.757948612514,38.611280575192,0.));
#126 = ORIENTED_EDGE('',*,*,#127,.F.);
#127 = EDGE_CURVE('',#93,#121,#128,.T.);
#128 = B_SPLINE_CURVE_WITH_KNOTS('',1,(#129,#130),.UNSPECIFIED.,.F.,.F.,
  (2,2),(0.,47.),.PIECEWISE_BEZIER_KNOTS.);
#129 = CARTESIAN_POINT('',(-45.96581020856,38.611280575192,
    373.61010537519));
#130 = CARTESIAN_POINT('',(-2.757948612514,38.611280575192,
    373.61010537519));
#131 = ORIENTED_EDGE('',*,*,#92,.T.);
#132 = B_SPLINE_SURFACE_WITH_KNOTS('',1,1,(
    (#133,#134)
    ,(#135,#136
    )),.UNSPECIFIED.,.F.,.F.,.F.,(2,2),(2,2),(-47.,0.),(-406.4,0.),
  .PIECEWISE_BEZIER_KNOTS.);
#133 = CARTESIAN_POINT('',(-2.757948612514,38.611280575192,0.));
#134 = CARTESIAN_POINT('',(-2.757948612514,38.611280575192,
    373.61010537519));
#135 = CARTESIAN_POINT('',(-45.96581020856,38.611280575192,0.));
#136 = CARTESIAN_POINT('',(-45.96581020856,38.611280575192,
    373.61010537519));
#137 = ADVANCED_FACE('',(#138),#160,.F.);
#138 = FACE_BOUND('',#139,.T.);
#139 = EDGE_LOOP('',(#140,#147,#154,#159));
#140 = ORIENTED_EDGE('',*,*,#141,.T.);
#141 = EDGE_CURVE('',#114,#142,#144,.T.);
#142 = VERTEX_POINT('',#143);
#143 = CARTESIAN_POINT('',(-2.757948612514,-38.61128057519,0.));
#144 = B_SPLINE_CURVE_WITH_KNOTS('',1,(#145,#146),.UNSPECIFIED.,.F.,.F.,
  (2,2),(0.,84.),.PIECEWISE_BEZIER_KNOTS.);
#145 = CARTESIAN_POINT('',(-2.757948612514,38.611280575192,0.));
#146 = CARTESIAN_POINT('',(-2.757948612514,-38.61128057519,0.));
#147 = ORIENTED_EDGE('',*,*,#148,.F.);
#148 = EDGE_CURVE('',#149,#142,#151,.T.);
#149 = VERTEX_POINT('',#150);
#150 = CARTESIAN_POINT('',(-2.757948612514,-38.61128057519,
    373.61010537519));
#151 = B_SPLINE_CURVE_WITH_KNOTS('',1,(#152,#153),.UNSPECIFIED.,.F.,.F.,
  (2,2),(-0.,406.4),.PIECEWISE_BEZIER_KNOTS.);
#152 = CARTESIAN_POINT('',(-2.757948612514,-38.61128057519,
    373.61010537519));
#153 = CARTESIAN_POINT('',(-2.757948612514,-38.61128057519,0.));
#154 = ORIENTED_EDGE('',*,*,#155,.F.);
#155 = EDGE_CURVE('',#121,#149,#156,.T.);
#156 = B_SPLINE_CURVE_WITH_KNOTS('',1,(#157,#158),.UNSPECIFIED.,.F.,.F.,
  (2,2),(0.,84.),.PIECEWISE_BEZIER_KNOTS.);
#157 = CARTESIAN_POINT('',(-2.757948612514,38.611280575192,
    373.61010537519));
#158 = CARTESIAN_POINT('',(-2.757948612514,-38.61128057519,
    373.61010537519));
#159 = ORIENTED_EDGE('',*,*,#120,.T.);
#160 = B_SPLINE_SURFACE_WITH_KNOTS('',1,1,(
    (#161,#162)
    ,(#163,#164
    )),.UNSPECIFIED.,.F.,.F.,.F.,(2,2),(2,2),(-84.,0.),(-406.4,0.),
  .PIECEWISE_BEZIER_KNOTS.);
#161 = CARTESIAN_POINT('',(-2.757948612514,-38.61128057519,0.));
#162 = CARTESIAN_POINT('',(-2.757948612514,-38.61128057519,
    373.61010537519));
#163 = CARTESIAN_POINT('',(-2.757948612514,38.611280575192,0.));
#164 = CARTESIAN_POINT('',(-2.757948612514,38.611280575192,
    373.61010537519));
#165 = ADVANCED_FACE('',(#166),#188,.F.);
#166 = FACE_BOUND('',#167,.T.);
#167 = EDGE_LOOP('',(#168,#175,#182,#187));
#168 = ORIENTED_EDGE('',*,*,#169,.T.);
#169 = EDGE_CURVE('',#142,#170,#172,.T.);
#170 = VERTEX_POINT('',#171);
#171 = CARTESIAN_POINT('',(-45.96581020856,-38.61128057519,0.));
#172 = B_SPLINE_CURVE_WITH_KNOTS('',1,(#173,#174),.UNSPECIFIED.,.F.,.F.,
  (2,2),(0.,47.),.PIECEWISE_BEZIER_KNOTS.);
#173 = CARTESIAN_POINT('',(-2.757948612514,-38.61128057519,0.));
#174 = CARTESIAN_POINT('',(-45.96581020856,-38.61128057519,0.));
#175 = ORIENTED_EDGE('',*,*,#176,.F.);
#176 = EDGE_CURVE('',#177,#170,#179,.T.);
#177 = VERTEX_POINT('',#178);
#178 = CARTESIAN_POINT('',(-45.96581020856,-38.61128057519,
    373.61010537519));
#179 = B_SPLINE_CURVE_WITH_KNOTS('',1,(#180,#181),.UNSPECIFIED.,.F.,.F.,
  (2,2),(-0.,406.4),.PIECEWISE_BEZIER_KNOTS.);
#180 = CARTESIAN_POINT('',(-45.96581020856,-38.61128057519,
    373.61010537519));
#181 = CARTESIAN_POINT('',(-45.96581020856,-38.61128057519,0.));
#182 = ORIENTED_EDGE('',*,*,#183,.F.);
#183 = EDGE_CURVE('',#149,#177,#184,.T.);
#184 = B_SPLINE_CURVE_WITH_KNOTS('',1,(#185,#186),.UNSPECIFIED.,.F.,.F.,
  (2,2),(0.,47.),.PIECEWISE_BEZIER_KNOTS.);
#185 = CARTESIAN_POINT('',(-2.757948612514,-38.61128057519,
    373.61010537519));
#186 = CARTESIAN_POINT('',(-45.96581020856,-38.61128057519,
    373.61010537519));
#187 = ORIENTED_EDGE('',*,*,#148,.T.);
#188 = B_SPLINE_SURFACE_WITH_KNOTS('',1,1,(
    (#189,#190)
    ,(#191,#192
    )),.UNSPECIFIED.,.F.,.F.,.F.,(2,2),(2,2),(-47.,0.),(-406.4,0.),
  .PIECEWISE_BEZIER_KNOTS.);
#189 = CARTESIAN_POINT('',(-45.96581020856,-38.61128057519,0.));
#190 = CARTESIAN_POINT('',(-45.96581020856,-38.61128057519,
    373.61010537519));
#191 = CARTESIAN_POINT('',(-2.757948612514,-38.61128057519,0.));
#192 = CARTESIAN_POINT('',(-2.757948612514,-38.61128057519,
    373.61010537519));
#193 = ADVANCED_FACE('',(#194),#216,.F.);
#194 = FACE_BOUND('',#195,.T.);
#195 = EDGE_LOOP('',(#196,#203,#210,#215));
#196 = ORIENTED_EDGE('',*,*,#197,.T.);
#197 = EDGE_CURVE('',#170,#198,#200,.T.);
#198 = VERTEX_POINT('',#199);
#199 = CARTESIAN_POINT('',(-45.96581020856,-45.96581020856,0.));
#200 = B_SPLINE_CURVE_WITH_KNOTS('',1,(#201,#202),.UNSPECIFIED.,.F.,.F.,
  (2,2),(-8.,-0.),.PIECEWISE_BEZIER_KNOTS.);
#201 = CARTESIAN_POINT('',(-45.96581020856,-38.61128057519,0.));
#202 = CARTESIAN_POINT('',(-45.96581020856,-45.96581020856,0.));
#203 = ORIENTED_EDGE('',*,*,#204,.F.);
#204 = EDGE_CURVE('',#205,#198,#207,.T.);
#205 = VERTEX_POINT('',#206);
#206 = CARTESIAN_POINT('',(-45.96581020856,-45.96581020856,
    373.61010537519));
#207 = B_SPLINE_CURVE_WITH_KNOTS('',1,(#208,#209),.UNSPECIFIED.,.F.,.F.,
  (2,2),(-0.,406.4),.PIECEWISE_BEZIER_KNOTS.);
#208 = CARTESIAN_POINT('',(-45.96581020856,-45.96581020856,
    373.61010537519));
#209 = CARTESIAN_POINT('',(-45.96581020856,-45.96581020856,0.));
#210 = ORIENTED_EDGE('',*,*,#211,.F.);
#211 = EDGE_CURVE('',#177,#205,#212,.T.);
#212 = B_SPLINE_CURVE_WITH_KNOTS('',1,(#213,#214),.UNSPECIFIED.,.F.,.F.,
  (2,2),(-8.,-0.),.PIECEWISE_BEZIER_KNOTS.);
#213 = CARTESIAN_POINT('',(-45.96581020856,-38.61128057519,
    373.61010537519));
#214 = CARTESIAN_POINT('',(-45.96581020856,-45.96581020856,
    373.61010537519));
#215 = ORIENTED_EDGE('',*,*,#176,.T.);
#216 = B_SPLINE_SURFACE_WITH_KNOTS('',1,1,(
    (#217,#218)
    ,(#219,#220
    )),.UNSPECIFIED.,.F.,.F.,.F.,(2,2),(2,2),(0.,406.4),(0.,8.),
  .PIECEWISE_BEZIER_KNOTS.);
#217 = CARTESIAN_POINT('',(-45.96581020856,-45.96581020856,
    373.61010537519));
#218 = CARTESIAN_POINT('',(-45.96581020856,-38.61128057519,
    373.61010537519));
#219 = CARTESIAN_POINT('',(-45.96581020856,-45.96581020856,0.));
#220 = CARTESIAN_POINT('',(-45.96581020856,-38.61128057519,0.));
#221 = ADVANCED_FACE('',(#222),#244,.F.);
#222 = FACE_BOUND('',#223,.T.);
#223 = EDGE_LOOP('',(#224,#231,#238,#243));
#224 = ORIENTED_EDGE('',*,*,#225,.T.);
#225 = EDGE_CURVE('',#198,#226,#228,.T.);
#226 = VERTEX_POINT('',#227);
#227 = CARTESIAN_POINT('',(45.965810208562,-45.96581020856,0.));
#228 = B_SPLINE_CURVE_WITH_KNOTS('',1,(#229,#230),.UNSPECIFIED.,.F.,.F.,
  (2,2),(0.,100.),.PIECEWISE_BEZIER_KNOTS.);
#229 = CARTESIAN_POINT('',(-45.96581020856,-45.96581020856,0.));
#230 = CARTESIAN_POINT('',(45.965810208562,-45.96581020856,0.));
#231 = ORIENTED_EDGE('',*,*,#232,.F.);
#232 = EDGE_CURVE('',#233,#226,#235,.T.);
#233 = VERTEX_POINT('',#234);
#234 = CARTESIAN_POINT('',(45.965810208562,-45.96581020856,
    373.61010537519));
#235 = B_SPLINE_CURVE_WITH_KNOTS('',1,(#236,#237),.UNSPECIFIED.,.F.,.F.,
  (2,2),(-0.,406.4),.PIECEWISE_BEZIER_KNOTS.);
#236 = CARTESIAN_POINT('',(45.965810208562,-45.96581020856,
    373.61010537519));
#237 = CARTESIAN_POINT('',(45.965810208562,-45.96581020856,0.));
#238 = ORIENTED_EDGE('',*,*,#239,.F.);
#239 = EDGE_CURVE('',#205,#233,#240,.T.);
#240 = B_SPLINE_CURVE_WITH_KNOTS('',1,(#241,#242),.UNSPECIFIED.,.F.,.F.,
  (2,2),(0.,100.),.PIECEWISE_BEZIER_KNOTS.);
#241 = CARTESIAN_POINT('',(-45.96581020856,-45.96581020856,
    373.61010537519));
#242 = CARTESIAN_POINT('',(45.965810208562,-45.96581020856,
    373.61010537519));
#243 = ORIENTED_EDGE('',*,*,#204,.T.);
#244 = B_SPLINE_SURFACE_WITH_KNOTS('',1,1,(
    (#245,#246)
    ,(#247,#248
    )),.UNSPECIFIED.,.F.,.F.,.F.,(2,2),(2,2),(-406.4,0.),(0.,100.),
  .PIECEWISE_BEZIER_KNOTS.);
#245 = CARTESIAN_POINT('',(-45.96581020856,-45.96581020856,0.));
#246 = CARTESIAN_POINT('',(45.965810208562,-45.96581020856,0.));
#247 = CARTESIAN_POINT('',(-45.96581020856,-45.96581020856,
    373.61010537519));
#248 = CARTESIAN_POINT('',(45.965810208562,-45.96581020856,
    373.61010537519));
#249 = ADVANCED_FACE('',(#250),#272,.F.);
#250 = FACE_BOUND('',#251,.T.);
#251 = EDGE_LOOP('',(#252,#259,#266,#271));
#252 = ORIENTED_EDGE('',*,*,#253,.T.);
#253 = EDGE_CURVE('',#226,#254,#256,.T.);
#254 = VERTEX_POINT('',#255);
#255 = CARTESIAN_POINT('',(45.965810208562,-38.61128057519,0.));
#256 = B_SPLINE_CURVE_WITH_KNOTS('',1,(#257,#258),.UNSPECIFIED.,.F.,.F.,
  (2,2),(0.,8.),.PIECEWISE_BEZIER_KNOTS.);
#257 = CARTESIAN_POINT('',(45.965810208562,-45.96581020856,0.));
#258 = CARTESIAN_POINT('',(45.965810208562,-38.61128057519,0.));
#259 = ORIENTED_EDGE('',*,*,#260,.F.);
#260 = EDGE_CURVE('',#261,#254,#263,.T.);
#261 = VERTEX_POINT('',#262);
#262 = CARTESIAN_POINT('',(45.965810208562,-38.61128057519,
    373.61010537519));
#263 = B_SPLINE_CURVE_WITH_KNOTS('',1,(#264,#265),.UNSPECIFIED.,.F.,.F.,
  (2,2),(-0.,406.4),.PIECEWISE_BEZIER_KNOTS.);
#264 = CARTESIAN_POINT('',(45.965810208562,-38.61128057519,
    373.61010537519));
#265 = CARTESIAN_POINT('',(45.965810208562,-38.61128057519,0.));
#266 = ORIENTED_EDGE('',*,*,#267,.F.);
#267 = EDGE_CURVE('',#233,#261,#268,.T.);
#268 = B_SPLINE_CURVE_WITH_KNOTS('',1,(#269,#270),.UNSPECIFIED.,.F.,.F.,
  (2,2),(0.,8.),.PIECEWISE_BEZIER_KNOTS.);
#269 = CARTESIAN_POINT('',(45.965810208562,-45.96581020856,
    373.61010537519));
#270 = CARTESIAN_POINT('',(45.965810208562,-38.61128057519,
    373.61010537519));
#271 = ORIENTED_EDGE('',*,*,#232,.T.);
#272 = B_SPLINE_SURFACE_WITH_KNOTS('',1,1,(
    (#273,#274)
    ,(#275,#276
    )),.UNSPECIFIED.,.F.,.F.,.F.,(2,2),(2,2),(-406.4,0.),(0.,8.),
  .PIECEWISE_BEZIER_KNOTS.);
#273 = CARTESIAN_POINT('',(45.965810208562,-45.96581020856,0.));
#274 = CARTESIAN_POINT('',(45.965810208562,-38.61128057519,0.));
#275 = CARTESIAN_POINT('',(45.965810208562,-45.96581020856,
    373.61010537519));
#276 = CARTESIAN_POINT('',(45.965810208562,-38.61128057519,
    373.61010537519));
#277 = ADVANCED_FACE('',(#278),#300,.F.);
#278 = FACE_BOUND('',#279,.T.);
#279 = EDGE_LOOP('',(#280,#287,#294,#299));
#280 = ORIENTED_EDGE('',*,*,#281,.T.);
#281 = EDGE_CURVE('',#254,#282,#284,.T.);
#282 = VERTEX_POINT('',#283);
#283 = CARTESIAN_POINT('',(2.757948612514,-38.61128057519,0.));
#284 = B_SPLINE_CURVE_WITH_KNOTS('',1,(#285,#286),.UNSPECIFIED.,.F.,.F.,
  (2,2),(-47.,-0.),.PIECEWISE_BEZIER_KNOTS.);
#285 = CARTESIAN_POINT('',(45.965810208562,-38.61128057519,0.));
#286 = CARTESIAN_POINT('',(2.757948612514,-38.61128057519,0.));
#287 = ORIENTED_EDGE('',*,*,#288,.F.);
#288 = EDGE_CURVE('',#289,#282,#291,.T.);
#289 = VERTEX_POINT('',#290);
#290 = CARTESIAN_POINT('',(2.757948612514,-38.61128057519,
    373.61010537519));
#291 = B_SPLINE_CURVE_WITH_KNOTS('',1,(#292,#293),.UNSPECIFIED.,.F.,.F.,
  (2,2),(-0.,406.4),.PIECEWISE_BEZIER_KNOTS.);
#292 = CARTESIAN_POINT('',(2.757948612514,-38.61128057519,
    373.61010537519));
#293 = CARTESIAN_POINT('',(2.757948612514,-38.61128057519,0.));
#294 = ORIENTED_EDGE('',*,*,#295,.F.);
#295 = EDGE_CURVE('',#261,#289,#296,.T.);
#296 = B_SPLINE_CURVE_WITH_KNOTS('',1,(#297,#298),.UNSPECIFIED.,.F.,.F.,
  (2,2),(-47.,-0.),.PIECEWISE_BEZIER_KNOTS.);
#297 = CARTESIAN_POINT('',(45.965810208562,-38.61128057519,
    373.61010537519));
#298 = CARTESIAN_POINT('',(2.757948612514,-38.61128057519,
    373.61010537519));
#299 = ORIENTED_EDGE('',*,*,#260,.T.);
#300 = B_SPLINE_SURFACE_WITH_KNOTS('',1,1,(
    (#301,#302)
    ,(#303,#304
    )),.UNSPECIFIED.,.F.,.F.,.F.,(2,2),(2,2),(0.,406.4),(0.,47.),
  .PIECEWISE_BEZIER_KNOTS.);
#301 = CARTESIAN_POINT('',(2.757948612514,-38.61128057519,
    373.61010537519));
#302 = CARTESIAN_POINT('',(45.965810208562,-38.61128057519,
    373.61010537519));
#303 = CARTESIAN_POINT('',(2.757948612514,-38.61128057519,0.));
#304 = CARTESIAN_POINT('',(45.965810208562,-38.61128057519,0.));
#305 = ADVANCED_FACE('',(#306),#328,.F.);
#306 = FACE_BOUND('',#307,.T.);
#307 = EDGE_LOOP('',(#308,#315,#322,#327));
#308 = ORIENTED_EDGE('',*,*,#309,.T.);
#309 = EDGE_CURVE('',#282,#310,#312,.T.);
#310 = VERTEX_POINT('',#311);
#311 = CARTESIAN_POINT('',(2.757948612514,38.611280575192,0.));
#312 = B_SPLINE_CURVE_WITH_KNOTS('',1,(#313,#314),.UNSPECIFIED.,.F.,.F.,
  (2,2),(-84.,0.),.PIECEWISE_BEZIER_KNOTS.);
#313 = CARTESIAN_POINT('',(2.757948612514,-38.61128057519,0.));
#314 = CARTESIAN_POINT('',(2.757948612514,38.611280575192,0.));
#315 = ORIENTED_EDGE('',*,*,#316,.F.);
#316 = EDGE_CURVE('',#317,#310,#319,.T.);
#317 = VERTEX_POINT('',#318);
#318 = CARTESIAN_POINT('',(2.757948612514,38.611280575192,
    373.61010537519));
#319 = B_SPLINE_CURVE_WITH_KNOTS('',1,(#320,#321),.UNSPECIFIED.,.F.,.F.,
  (2,2),(-0.,406.4),.PIECEWISE_BEZIER_KNOTS.);
#320 = CARTESIAN_POINT('',(2.757948612514,38.611280575192,
    373.61010537519));
#321 = CARTESIAN_POINT('',(2.757948612514,38.611280575192,0.));
#322 = ORIENTED_EDGE('',*,*,#323,.F.);
#323 = EDGE_CURVE('',#289,#317,#324,.T.);
#324 = B_SPLINE_CURVE_WITH_KNOTS('',1,(#325,#326),.UNSPECIFIED.,.F.,.F.,
  (2,2),(-84.,0.),.PIECEWISE_BEZIER_KNOTS.);
#325 = CARTESIAN_POINT('',(2.757948612514,-38.61128057519,
    373.61010537519));
#326 = CARTESIAN_POINT('',(2.757948612514,38.611280575192,
    373.61010537519));
#327 = ORIENTED_EDGE('',*,*,#288,.T.);
#328 = B_SPLINE_SURFACE_WITH_KNOTS('',1,1,(
    (#329,#330)
    ,(#331,#332
    )),.UNSPECIFIED.,.F.,.F.,.F.,(2,2),(2,2),(0.,84.),(-406.4,0.),
  .PIECEWISE_BEZIER_KNOTS.);
#329 = CARTESIAN_POINT('',(2.757948612514,38.611280575192,0.));
#330 = CARTESIAN_POINT('',(2.757948612514,38.611280575192,
    373.61010537519));
#331 = CARTESIAN_POINT('',(2.757948612514,-38.61128057519,0.));
#332 = CARTESIAN_POINT('',(2.757948612514,-38.61128057519,
    373.61010537519));
#333 = ADVANCED_FACE('',(#334),#348,.F.);
#334 = FACE_BOUND('',#335,.T.);
#335 = EDGE_LOOP('',(#336,#341,#342,#347));
#336 = ORIENTED_EDGE('',*,*,#337,.T.);
#337 = EDGE_CURVE('',#310,#22,#338,.T.);
#338 = B_SPLINE_CURVE_WITH_KNOTS('',1,(#339,#340),.UNSPECIFIED.,.F.,.F.,
  (2,2),(-47.,0.),.PIECEWISE_BEZIER_KNOTS.);
#339 = CARTESIAN_POINT('',(2.757948612514,38.611280575192,0.));
#340 = CARTESIAN_POINT('',(45.965810208562,38.611280575192,0.));
#341 = ORIENTED_EDGE('',*,*,#44,.F.);
#342 = ORIENTED_EDGE('',*,*,#343,.F.);
#343 = EDGE_CURVE('',#317,#38,#344,.T.);
#344 = B_SPLINE_CURVE_WITH_KNOTS('',1,(#345,#346),.UNSPECIFIED.,.F.,.F.,
  (2,2),(-47.,0.),.PIECEWISE_BEZIER_KNOTS.);
#345 = CARTESIAN_POINT('',(2.757948612514,38.611280575192,
    373.61010537519));
#346 = CARTESIAN_POINT('',(45.965810208562,38.611280575192,
    373.61010537519));
#347 = ORIENTED_EDGE('',*,*,#316,.T.);
#348 = B_SPLINE_SURFACE_WITH_KNOTS('',1,1,(
    (#349,#350)
    ,(#351,#352
    )),.UNSPECIFIED.,.F.,.F.,.F.,(2,2),(2,2),(-0.,47.),(-406.4,0.),
  .PIECEWISE_BEZIER_KNOTS.);
#349 = CARTESIAN_POINT('',(45.965810208562,38.611280575192,0.));
#350 = CARTESIAN_POINT('',(45.965810208562,38.611280575192,
    373.61010537519));
#351 = CARTESIAN_POINT('',(2.757948612514,38.611280575192,0.));
#352 = CARTESIAN_POINT('',(2.757948612514,38.611280575192,
    373.61010537519));
#353 = ADVANCED_FACE('',(#354),#368,.F.);
#354 = FACE_BOUND('',#355,.T.);
#355 = EDGE_LOOP('',(#356,#357,#358,#359,#360,#361,#362,#363,#364,#365,
    #366,#367));
#356 = ORIENTED_EDGE('',*,*,#37,.T.);
#357 = ORIENTED_EDGE('',*,*,#71,.T.);
#358 = ORIENTED_EDGE('',*,*,#99,.T.);
#359 = ORIENTED_EDGE('',*,*,#127,.T.);
#360 = ORIENTED_EDGE('',*,*,#155,.T.);
#361 = ORIENTED_EDGE('',*,*,#183,.T.);
#362 = ORIENTED_EDGE('',*,*,#211,.T.);
#363 = ORIENTED_EDGE('',*,*,#239,.T.);
#364 = ORIENTED_EDGE('',*,*,#267,.T.);
#365 = ORIENTED_EDGE('',*,*,#295,.T.);
#366 = ORIENTED_EDGE('',*,*,#323,.T.);
#367 = ORIENTED_EDGE('',*,*,#343,.T.);
#368 = B_SPLINE_SURFACE_WITH_KNOTS('',1,1,(
    (#369,#370)
    ,(#371,#372
    )),.UNSPECIFIED.,.F.,.F.,.F.,(2,2),(2,2),(-50.,50.),(-50.,50.),
  .PIECEWISE_BEZIER_KNOTS.);
#369 = CARTESIAN_POINT('',(45.965810208562,-45.96581020856,
    373.61010537519));
#370 = CARTESIAN_POINT('',(45.965810208562,45.965810208562,
    373.61010537519));
#371 = CARTESIAN_POINT('',(-45.96581020856,-45.96581020856,
    373.61010537519));
#372 = CARTESIAN_POINT('',(-45.96581020856,45.965810208562,
    373.61010537519));
#373 = ADVANCED_FACE('',(#374),#388,.T.);
#374 = FACE_BOUND('',#375,.T.);
#375 = EDGE_LOOP('',(#376,#377,#378,#379,#380,#381,#382,#383,#384,#385,
    #386,#387));
#376 = ORIENTED_EDGE('',*,*,#21,.F.);
#377 = ORIENTED_EDGE('',*,*,#337,.F.);
#378 = ORIENTED_EDGE('',*,*,#309,.F.);
#379 = ORIENTED_EDGE('',*,*,#281,.F.);
#380 = ORIENTED_EDGE('',*,*,#253,.F.);
#381 = ORIENTED_EDGE('',*,*,#225,.F.);
#382 = ORIENTED_EDGE('',*,*,#197,.F.);
#383 = ORIENTED_EDGE('',*,*,#169,.F.);
#384 = ORIENTED_EDGE('',*,*,#141,.F.);
#385 = ORIENTED_EDGE('',*,*,#113,.F.);
#386 = ORIENTED_EDGE('',*,*,#85,.F.);
#387 = ORIENTED_EDGE('',*,*,#57,.F.);
#388 = B_SPLINE_SURFACE_WITH_KNOTS('',1,1,(
    (#389,#390)
    ,(#391,#392
    )),.UNSPECIFIED.,.F.,.F.,.F.,(2,2),(2,2),(-50.,50.),(-50.,50.),
  .PIECEWISE_BEZIER_KNOTS.);
#389 = CARTESIAN_POINT('',(45.965810208562,-45.96581020856,0.));
#390 = CARTESIAN_POINT('',(45.965810208562,45.965810208562,0.));
#391 = CARTESIAN_POINT('',(-45.96581020856,-45.96581020856,0.));
#392 = CARTESIAN_POINT('',(-45.96581020856,45.965810208562,0.));
#393 = ( GEOMETRIC_REPRESENTATION_CONTEXT(3) 
GLOBAL_UNCERTAINTY_ASSIGNED_CONTEXT((#397)) GLOBAL_UNIT_ASSIGNED_CONTEXT
((#394,#395,#396)) REPRESENTATION_CONTEXT('Context #1',
  '3D Context with UNIT and UNCERTAINTY') );
#394 = ( LENGTH_UNIT() NAMED_UNIT(*) SI_UNIT(.MILLI.,.METRE.) );
#395 = ( NAMED_UNIT(*) PLANE_ANGLE_UNIT() SI_UNIT($,.RADIAN.) );
#396 = ( NAMED_UNIT(*) SI_UNIT($,.STERADIAN.) SOLID_ANGLE_UNIT() );
#397 = UNCERTAINTY_MEASURE_WITH_UNIT(LENGTH_MEASURE(1.E-07),#394,
  'distance_accuracy_value','confusion accuracy');
#398 = PRODUCT_RELATED_PRODUCT_CATEGORY('part',$,(#7));
ENDSEC;
END-ISO-10303-21;
