ISO-10303-21;
HEADER;
FILE_DESCRIPTION(('FreeCAD Model'),'2;1');
FILE_NAME('Open CASCADE Shape Model','2025-05-01T20:26:05',('FreeCAD'),(
    'FreeCAD'),'Open CASCADE STEP processor 7.6','FreeCAD','Unknown');
FILE_SCHEMA(('AUTOMOTIVE_DESIGN { 1 0 10303 214 1 1 1 1 }'));
ENDSEC;
DATA;
#1 = APPLICATION_PROTOCOL_DEFINITION('international standard',
  'automotive_design',2000,#2);
#2 = APPLICATION_CONTEXT(
  'core data for automotive mechanical design processes');
#3 = SHAPE_DEFINITION_REPRESENTATION(#4,#10);
#4 = PRODUCT_DEFINITION_SHAPE('','',#5);
#5 = PRODUCT_DEFINITION('design','',#6,#9);
#6 = PRODUCT_DEFINITION_FORMATION('','',#7);
#7 = PRODUCT('Open CASCADE STEP translator 7.6 1',
  'Open CASCADE STEP translator 7.6 1','',(#8));
#8 = PRODUCT_CONTEXT('',#2,'mechanical');
#9 = PRODUCT_DEFINITION_CONTEXT('part definition',#2,'design');
#10 = ADVANCED_BREP_SHAPE_REPRESENTATION('',(#11,#15),#327);
#11 = AXIS2_PLACEMENT_3D('',#12,#13,#14);
#12 = CARTESIAN_POINT('',(0.,0.,0.));
#13 = DIRECTION('',(0.,0.,1.));
#14 = DIRECTION('',(1.,0.,-0.));
#15 = MANIFOLD_SOLID_BREP('',#16);
#16 = CLOSED_SHELL('',(#17,#65,#88,#141,#178,#206,#228,#250,#272,#294,
    #310));
#17 = ADVANCED_FACE('',(#18),#50,.T.);
#18 = FACE_BOUND('',#19,.T.);
#19 = EDGE_LOOP('',(#20,#32,#39,#49));
#20 = ORIENTED_EDGE('',*,*,#21,.T.);
#21 = EDGE_CURVE('',#22,#22,#24,.T.);
#22 = VERTEX_POINT('',#23);
#23 = CARTESIAN_POINT('',(4.217332348284,0.,0.));
#24 = ( BOUNDED_CURVE() B_SPLINE_CURVE(2,(#25,#26,#27,#28,#29,#30,#31),
.UNSPECIFIED.,.T.,.F.) B_SPLINE_CURVE_WITH_KNOTS((1,2,2,2,2,1),(
    -2.094395102393,0.,2.094395102393,4.188790204786,6.28318530718,
8.377580409573),.UNSPECIFIED.) CURVE() GEOMETRIC_REPRESENTATION_ITEM() 
RATIONAL_B_SPLINE_CURVE((1.,0.5,1.,0.5,1.,0.5,1.)) REPRESENTATION_ITEM(
  '') );
#25 = CARTESIAN_POINT('',(4.217332348284,0.,0.));
#26 = CARTESIAN_POINT('',(4.217332348284,7.304633899632,0.));
#27 = CARTESIAN_POINT('',(-2.108666174142,3.652316949816,0.));
#28 = CARTESIAN_POINT('',(-8.434664696569,1.032948512253E-15,0.));
#29 = CARTESIAN_POINT('',(-2.108666174142,-3.652316949816,0.));
#30 = CARTESIAN_POINT('',(4.217332348284,-7.304633899632,0.));
#31 = CARTESIAN_POINT('',(4.217332348284,0.,0.));
#32 = ORIENTED_EDGE('',*,*,#33,.T.);
#33 = EDGE_CURVE('',#22,#34,#36,.T.);
#34 = VERTEX_POINT('',#35);
#35 = CARTESIAN_POINT('',(4.217332348284,0.,1.054333087071));
#36 = B_SPLINE_CURVE_WITH_KNOTS('',1,(#37,#38),.UNSPECIFIED.,.F.,.F.,(2,
    2),(0.,1.),.PIECEWISE_BEZIER_KNOTS.);
#37 = CARTESIAN_POINT('',(4.217332348284,0.,0.));
#38 = CARTESIAN_POINT('',(4.217332348284,0.,1.054333087071));
#39 = ORIENTED_EDGE('',*,*,#40,.F.);
#40 = EDGE_CURVE('',#34,#34,#41,.T.);
#41 = ( BOUNDED_CURVE() B_SPLINE_CURVE(2,(#42,#43,#44,#45,#46,#47,#48),
.UNSPECIFIED.,.T.,.F.) B_SPLINE_CURVE_WITH_KNOTS((1,2,2,2,2,1),(
    -2.094395102393,0.,2.094395102393,4.188790204786,6.28318530718,
8.377580409573),.UNSPECIFIED.) CURVE() GEOMETRIC_REPRESENTATION_ITEM() 
RATIONAL_B_SPLINE_CURVE((1.,0.5,1.,0.5,1.,0.5,1.)) REPRESENTATION_ITEM(
  '') );
#42 = CARTESIAN_POINT('',(4.217332348284,0.,1.054333087071));
#43 = CARTESIAN_POINT('',(4.217332348284,7.304633899632,1.054333087071)
  );
#44 = CARTESIAN_POINT('',(-2.108666174142,3.652316949816,1.054333087071)
  );
#45 = CARTESIAN_POINT('',(-8.434664696569,1.032948512253E-15,
    1.054333087071));
#46 = CARTESIAN_POINT('',(-2.108666174142,-3.652316949816,1.054333087071
    ));
#47 = CARTESIAN_POINT('',(4.217332348284,-7.304633899632,1.054333087071)
  );
#48 = CARTESIAN_POINT('',(4.217332348284,0.,1.054333087071));
#49 = ORIENTED_EDGE('',*,*,#33,.F.);
#50 = ( BOUNDED_SURFACE() B_SPLINE_SURFACE(2,1,(
    (#51,#52)
    ,(#53,#54)
    ,(#55,#56)
    ,(#57,#58)
    ,(#59,#60)
    ,(#61,#62)
,(#63,#64
    )),.UNSPECIFIED.,.T.,.F.,.F.) B_SPLINE_SURFACE_WITH_KNOTS((1,2,2,2,2
    ,1),(2,2),(-2.094395102393,0.,2.094395102393,4.188790204786,
    6.28318530718,8.377580409573),(-1.,0.),.UNSPECIFIED.) 
GEOMETRIC_REPRESENTATION_ITEM() RATIONAL_B_SPLINE_SURFACE((
    (1.,1.)
    ,(0.5,0.5)
    ,(1.,1.)
    ,(0.5,0.5)
    ,(1.,1.)
    ,(0.5,0.5)
,(1.,1.))) REPRESENTATION_ITEM('') SURFACE() );
#51 = CARTESIAN_POINT('',(4.217332348284,0.,1.054333087071));
#52 = CARTESIAN_POINT('',(4.217332348284,0.,0.));
#53 = CARTESIAN_POINT('',(4.217332348284,-7.304633899632,1.054333087071)
  );
#54 = CARTESIAN_POINT('',(4.217332348284,-7.304633899632,0.));
#55 = CARTESIAN_POINT('',(-2.108666174142,-3.652316949816,1.054333087071
    ));
#56 = CARTESIAN_POINT('',(-2.108666174142,-3.652316949816,0.));
#57 = CARTESIAN_POINT('',(-8.434664696569,-1.032948512253E-15,
    1.054333087071));
#58 = CARTESIAN_POINT('',(-8.434664696569,-1.032948512253E-15,0.));
#59 = CARTESIAN_POINT('',(-2.108666174142,3.652316949816,1.054333087071)
  );
#60 = CARTESIAN_POINT('',(-2.108666174142,3.652316949816,0.));
#61 = CARTESIAN_POINT('',(4.217332348284,7.304633899632,1.054333087071)
  );
#62 = CARTESIAN_POINT('',(4.217332348284,7.304633899632,0.));
#63 = CARTESIAN_POINT('',(4.217332348284,0.,1.054333087071));
#64 = CARTESIAN_POINT('',(4.217332348284,0.,0.));
#65 = ADVANCED_FACE('',(#66,#69),#83,.F.);
#66 = FACE_BOUND('',#67,.F.);
#67 = EDGE_LOOP('',(#68));
#68 = ORIENTED_EDGE('',*,*,#21,.T.);
#69 = FACE_BOUND('',#70,.F.);
#70 = EDGE_LOOP('',(#71));
#71 = ORIENTED_EDGE('',*,*,#72,.F.);
#72 = EDGE_CURVE('',#73,#73,#75,.T.);
#73 = VERTEX_POINT('',#74);
#74 = CARTESIAN_POINT('',(1.845082902374,0.,0.));
#75 = ( BOUNDED_CURVE() B_SPLINE_CURVE(2,(#76,#77,#78,#79,#80,#81,#82),
.UNSPECIFIED.,.T.,.F.) B_SPLINE_CURVE_WITH_KNOTS((1,2,2,2,2,1),(
    -2.094395102393,0.,2.094395102393,4.188790204786,6.28318530718,
8.377580409573),.UNSPECIFIED.) CURVE() GEOMETRIC_REPRESENTATION_ITEM() 
RATIONAL_B_SPLINE_CURVE((1.,0.5,1.,0.5,1.,0.5,1.)) REPRESENTATION_ITEM(
  '') );
#76 = CARTESIAN_POINT('',(1.845082902374,0.,0.));
#77 = CARTESIAN_POINT('',(1.845082902374,3.195777331089,0.));
#78 = CARTESIAN_POINT('',(-0.922541451187,1.597888665545,0.));
#79 = CARTESIAN_POINT('',(-3.690165804749,4.519149741109E-16,0.));
#80 = CARTESIAN_POINT('',(-0.922541451187,-1.597888665545,0.));
#81 = CARTESIAN_POINT('',(1.845082902374,-3.195777331089,0.));
#82 = CARTESIAN_POINT('',(1.845082902374,0.,0.));
#83 = B_SPLINE_SURFACE_WITH_KNOTS('',1,1,(
    (#84,#85)
    ,(#86,#87)),.UNSPECIFIED.,.F.,.F.,.F.,(2,2),(2,2),(-4.,4.),(-4.,4.),
  .PIECEWISE_BEZIER_KNOTS.);
#84 = CARTESIAN_POINT('',(-4.217332348284,-4.217332348284,0.));
#85 = CARTESIAN_POINT('',(-4.217332348284,4.217332348284,0.));
#86 = CARTESIAN_POINT('',(4.217332348284,-4.217332348284,0.));
#87 = CARTESIAN_POINT('',(4.217332348284,4.217332348284,0.));
#88 = ADVANCED_FACE('',(#89,#92),#136,.T.);
#89 = FACE_BOUND('',#90,.T.);
#90 = EDGE_LOOP('',(#91));
#91 = ORIENTED_EDGE('',*,*,#40,.T.);
#92 = FACE_BOUND('',#93,.T.);
#93 = EDGE_LOOP('',(#94,#103,#110,#117,#124,#131));
#94 = ORIENTED_EDGE('',*,*,#95,.F.);
#95 = EDGE_CURVE('',#96,#98,#100,.T.);
#96 = VERTEX_POINT('',#97);
#97 = CARTESIAN_POINT('',(3.043597458179,0.,1.054333087071));
#98 = VERTEX_POINT('',#99);
#99 = CARTESIAN_POINT('',(1.521798729089,2.635832717678,1.054333087071)
  );
#100 = B_SPLINE_CURVE_WITH_KNOTS('',1,(#101,#102),.UNSPECIFIED.,.F.,.F.,
  (2,2),(0.,2.886751345948),.PIECEWISE_BEZIER_KNOTS.);
#101 = CARTESIAN_POINT('',(3.043597458179,0.,1.054333087071));
#102 = CARTESIAN_POINT('',(1.521798729088,2.635832717677,1.054333087071)
  );
#103 = ORIENTED_EDGE('',*,*,#104,.F.);
#104 = EDGE_CURVE('',#105,#96,#107,.T.);
#105 = VERTEX_POINT('',#106);
#106 = CARTESIAN_POINT('',(1.521798729089,-2.635832717678,1.054333087071
    ));
#107 = B_SPLINE_CURVE_WITH_KNOTS('',1,(#108,#109),.UNSPECIFIED.,.F.,.F.,
  (2,2),(0.,2.886751345948),.PIECEWISE_BEZIER_KNOTS.);
#108 = CARTESIAN_POINT('',(1.521798729089,-2.635832717678,1.054333087071
    ));
#109 = CARTESIAN_POINT('',(3.04359745818,-3.633371273036E-13,
    1.054333087071));
#110 = ORIENTED_EDGE('',*,*,#111,.F.);
#111 = EDGE_CURVE('',#112,#105,#114,.T.);
#112 = VERTEX_POINT('',#113);
#113 = CARTESIAN_POINT('',(-1.521798729096,-2.63583271768,1.054333087071
    ));
#114 = B_SPLINE_CURVE_WITH_KNOTS('',1,(#115,#116),.UNSPECIFIED.,.F.,.F.,
  (2,2),(0.,2.886751345953),.PIECEWISE_BEZIER_KNOTS.);
#115 = CARTESIAN_POINT('',(-1.521798729096,-2.63583271768,1.054333087071
    ));
#116 = CARTESIAN_POINT('',(1.521798729089,-2.635832717677,1.054333087071
    ));
#117 = ORIENTED_EDGE('',*,*,#118,.F.);
#118 = EDGE_CURVE('',#119,#112,#121,.T.);
#119 = VERTEX_POINT('',#120);
#120 = CARTESIAN_POINT('',(-3.043597458179,8.615210235034E-14,
    1.054333087071));
#121 = B_SPLINE_CURVE_WITH_KNOTS('',1,(#122,#123),.UNSPECIFIED.,.F.,.F.,
  (2,2),(0.,2.886751345946),.PIECEWISE_BEZIER_KNOTS.);
#122 = CARTESIAN_POINT('',(-3.043597458179,8.615210235034E-14,
    1.054333087071));
#123 = CARTESIAN_POINT('',(-1.521798729096,-2.63583271768,1.054333087071
    ));
#124 = ORIENTED_EDGE('',*,*,#125,.F.);
#125 = EDGE_CURVE('',#126,#119,#128,.T.);
#126 = VERTEX_POINT('',#127);
#127 = CARTESIAN_POINT('',(-1.52179872909,2.635832717677,1.054333087071)
  );
#128 = B_SPLINE_CURVE_WITH_KNOTS('',1,(#129,#130),.UNSPECIFIED.,.F.,.F.,
  (2,2),(0.,2.886751345947),.PIECEWISE_BEZIER_KNOTS.);
#129 = CARTESIAN_POINT('',(-1.52179872909,2.635832717677,1.054333087071)
  );
#130 = CARTESIAN_POINT('',(-3.043597458179,-1.399971663193E-13,
    1.054333087071));
#131 = ORIENTED_EDGE('',*,*,#132,.F.);
#132 = EDGE_CURVE('',#98,#126,#133,.T.);
#133 = B_SPLINE_CURVE_WITH_KNOTS('',1,(#134,#135),.UNSPECIFIED.,.F.,.F.,
  (2,2),(0.,2.886751345947),.PIECEWISE_BEZIER_KNOTS.);
#134 = CARTESIAN_POINT('',(1.521798729089,2.635832717678,1.054333087071)
  );
#135 = CARTESIAN_POINT('',(-1.52179872909,2.635832717677,1.054333087071)
  );
#136 = B_SPLINE_SURFACE_WITH_KNOTS('',1,1,(
    (#137,#138)
    ,(#139,#140
    )),.UNSPECIFIED.,.F.,.F.,.F.,(2,2),(2,2),(-4.,4.),(-4.,4.),
  .PIECEWISE_BEZIER_KNOTS.);
#137 = CARTESIAN_POINT('',(-4.217332348284,-4.217332348284,
    1.054333087071));
#138 = CARTESIAN_POINT('',(-4.217332348284,4.217332348284,1.054333087071
    ));
#139 = CARTESIAN_POINT('',(4.217332348284,-4.217332348284,1.054333087071
    ));
#140 = CARTESIAN_POINT('',(4.217332348284,4.217332348284,1.054333087071)
  );
#141 = ADVANCED_FACE('',(#142),#163,.F.);
#142 = FACE_BOUND('',#143,.F.);
#143 = EDGE_LOOP('',(#144,#156,#161,#162));
#144 = ORIENTED_EDGE('',*,*,#145,.F.);
#145 = EDGE_CURVE('',#146,#146,#148,.T.);
#146 = VERTEX_POINT('',#147);
#147 = CARTESIAN_POINT('',(1.845082902374,0.,3.162999261213));
#148 = ( BOUNDED_CURVE() B_SPLINE_CURVE(2,(#149,#150,#151,#152,#153,#154
,#155),.UNSPECIFIED.,.T.,.F.) B_SPLINE_CURVE_WITH_KNOTS((1,2,2,2,2,1),(
    -2.094395102393,0.,2.094395102393,4.188790204786,6.28318530718,
8.377580409573),.UNSPECIFIED.) CURVE() GEOMETRIC_REPRESENTATION_ITEM() 
RATIONAL_B_SPLINE_CURVE((1.,0.5,1.,0.5,1.,0.5,1.)) REPRESENTATION_ITEM(
  '') );
#149 = CARTESIAN_POINT('',(1.845082902374,0.,3.162999261213));
#150 = CARTESIAN_POINT('',(1.845082902374,3.195777331089,3.162999261213)
  );
#151 = CARTESIAN_POINT('',(-0.922541451187,1.597888665545,3.162999261213
    ));
#152 = CARTESIAN_POINT('',(-3.690165804749,4.519149741109E-16,
    3.162999261213));
#153 = CARTESIAN_POINT('',(-0.922541451187,-1.597888665545,
    3.162999261213));
#154 = CARTESIAN_POINT('',(1.845082902374,-3.195777331089,3.162999261213
    ));
#155 = CARTESIAN_POINT('',(1.845082902374,0.,3.162999261213));
#156 = ORIENTED_EDGE('',*,*,#157,.T.);
#157 = EDGE_CURVE('',#146,#73,#158,.T.);
#158 = B_SPLINE_CURVE_WITH_KNOTS('',1,(#159,#160),.UNSPECIFIED.,.F.,.F.,
  (2,2),(-0.,3.),.PIECEWISE_BEZIER_KNOTS.);
#159 = CARTESIAN_POINT('',(1.845082902374,0.,3.162999261213));
#160 = CARTESIAN_POINT('',(1.845082902374,0.,0.));
#161 = ORIENTED_EDGE('',*,*,#72,.T.);
#162 = ORIENTED_EDGE('',*,*,#157,.F.);
#163 = ( BOUNDED_SURFACE() B_SPLINE_SURFACE(2,1,(
    (#164,#165)
    ,(#166,#167)
    ,(#168,#169)
    ,(#170,#171)
    ,(#172,#173)
    ,(#174,#175)
,(#176,#177
    )),.UNSPECIFIED.,.T.,.F.,.F.) B_SPLINE_SURFACE_WITH_KNOTS((1,2,2,2,2
    ,1),(2,2),(-2.094395102393,0.,2.094395102393,4.188790204786,
    6.28318530718,8.377580409573),(-3.,0.),.UNSPECIFIED.) 
GEOMETRIC_REPRESENTATION_ITEM() RATIONAL_B_SPLINE_SURFACE((
    (1.,1.)
    ,(0.5,0.5)
    ,(1.,1.)
    ,(0.5,0.5)
    ,(1.,1.)
    ,(0.5,0.5)
,(1.,1.))) REPRESENTATION_ITEM('') SURFACE() );
#164 = CARTESIAN_POINT('',(1.845082902374,0.,0.));
#165 = CARTESIAN_POINT('',(1.845082902374,0.,3.162999261213));
#166 = CARTESIAN_POINT('',(1.845082902374,3.195777331089,0.));
#167 = CARTESIAN_POINT('',(1.845082902374,3.195777331089,3.162999261213)
  );
#168 = CARTESIAN_POINT('',(-0.922541451187,1.597888665545,0.));
#169 = CARTESIAN_POINT('',(-0.922541451187,1.597888665545,3.162999261213
    ));
#170 = CARTESIAN_POINT('',(-3.690165804749,4.519149741109E-16,0.));
#171 = CARTESIAN_POINT('',(-3.690165804749,4.519149741109E-16,
    3.162999261213));
#172 = CARTESIAN_POINT('',(-0.922541451187,-1.597888665545,0.));
#173 = CARTESIAN_POINT('',(-0.922541451187,-1.597888665545,
    3.162999261213));
#174 = CARTESIAN_POINT('',(1.845082902374,-3.195777331089,0.));
#175 = CARTESIAN_POINT('',(1.845082902374,-3.195777331089,3.162999261213
    ));
#176 = CARTESIAN_POINT('',(1.845082902374,0.,0.));
#177 = CARTESIAN_POINT('',(1.845082902374,0.,3.162999261213));
#178 = ADVANCED_FACE('',(#179),#201,.F.);
#179 = FACE_BOUND('',#180,.F.);
#180 = EDGE_LOOP('',(#181,#188,#195,#200));
#181 = ORIENTED_EDGE('',*,*,#182,.T.);
#182 = EDGE_CURVE('',#96,#183,#185,.T.);
#183 = VERTEX_POINT('',#184);
#184 = CARTESIAN_POINT('',(3.043597458179,0.,3.162999261213));
#185 = B_SPLINE_CURVE_WITH_KNOTS('',1,(#186,#187),.UNSPECIFIED.,.F.,.F.,
  (2,2),(0.,2.),.PIECEWISE_BEZIER_KNOTS.);
#186 = CARTESIAN_POINT('',(3.043597458179,0.,1.054333087071));
#187 = CARTESIAN_POINT('',(3.043597458179,0.,3.162999261213));
#188 = ORIENTED_EDGE('',*,*,#189,.T.);
#189 = EDGE_CURVE('',#183,#190,#192,.T.);
#190 = VERTEX_POINT('',#191);
#191 = CARTESIAN_POINT('',(1.521798729089,2.635832717678,3.162999261213)
  );
#192 = B_SPLINE_CURVE_WITH_KNOTS('',1,(#193,#194),.UNSPECIFIED.,.F.,.F.,
  (2,2),(0.,2.886751345948),.PIECEWISE_BEZIER_KNOTS.);
#193 = CARTESIAN_POINT('',(3.043597458179,0.,3.162999261213));
#194 = CARTESIAN_POINT('',(1.521798729088,2.635832717677,3.162999261213)
  );
#195 = ORIENTED_EDGE('',*,*,#196,.F.);
#196 = EDGE_CURVE('',#98,#190,#197,.T.);
#197 = B_SPLINE_CURVE_WITH_KNOTS('',1,(#198,#199),.UNSPECIFIED.,.F.,.F.,
  (2,2),(0.,2.),.PIECEWISE_BEZIER_KNOTS.);
#198 = CARTESIAN_POINT('',(1.521798729089,2.635832717678,1.054333087071)
  );
#199 = CARTESIAN_POINT('',(1.521798729089,2.635832717678,3.162999261213)
  );
#200 = ORIENTED_EDGE('',*,*,#95,.F.);
#201 = B_SPLINE_SURFACE_WITH_KNOTS('',1,1,(
    (#202,#203)
    ,(#204,#205
    )),.UNSPECIFIED.,.F.,.F.,.F.,(2,2),(2,2),(0.,2.886751345948),(-2.,0.
    ),.PIECEWISE_BEZIER_KNOTS.);
#202 = CARTESIAN_POINT('',(3.043597458179,0.,3.162999261213));
#203 = CARTESIAN_POINT('',(3.043597458179,0.,1.054333087071));
#204 = CARTESIAN_POINT('',(1.521798729088,2.635832717677,3.162999261213)
  );
#205 = CARTESIAN_POINT('',(1.521798729088,2.635832717677,1.054333087071)
  );
#206 = ADVANCED_FACE('',(#207),#223,.F.);
#207 = FACE_BOUND('',#208,.F.);
#208 = EDGE_LOOP('',(#209,#210,#217,#222));
#209 = ORIENTED_EDGE('',*,*,#196,.T.);
#210 = ORIENTED_EDGE('',*,*,#211,.T.);
#211 = EDGE_CURVE('',#190,#212,#214,.T.);
#212 = VERTEX_POINT('',#213);
#213 = CARTESIAN_POINT('',(-1.52179872909,2.635832717677,3.162999261213)
  );
#214 = B_SPLINE_CURVE_WITH_KNOTS('',1,(#215,#216),.UNSPECIFIED.,.F.,.F.,
  (2,2),(0.,2.886751345947),.PIECEWISE_BEZIER_KNOTS.);
#215 = CARTESIAN_POINT('',(1.521798729089,2.635832717678,3.162999261213)
  );
#216 = CARTESIAN_POINT('',(-1.52179872909,2.635832717677,3.162999261213)
  );
#217 = ORIENTED_EDGE('',*,*,#218,.F.);
#218 = EDGE_CURVE('',#126,#212,#219,.T.);
#219 = B_SPLINE_CURVE_WITH_KNOTS('',1,(#220,#221),.UNSPECIFIED.,.F.,.F.,
  (2,2),(0.,2.),.PIECEWISE_BEZIER_KNOTS.);
#220 = CARTESIAN_POINT('',(-1.52179872909,2.635832717677,1.054333087071)
  );
#221 = CARTESIAN_POINT('',(-1.52179872909,2.635832717677,3.162999261213)
  );
#222 = ORIENTED_EDGE('',*,*,#132,.F.);
#223 = B_SPLINE_SURFACE_WITH_KNOTS('',1,1,(
    (#224,#225)
    ,(#226,#227
    )),.UNSPECIFIED.,.F.,.F.,.F.,(2,2),(2,2),(0.,2.886751345947),(-2.,0.
    ),.PIECEWISE_BEZIER_KNOTS.);
#224 = CARTESIAN_POINT('',(1.521798729089,2.635832717678,3.162999261213)
  );
#225 = CARTESIAN_POINT('',(1.521798729089,2.635832717678,1.054333087071)
  );
#226 = CARTESIAN_POINT('',(-1.52179872909,2.635832717677,3.162999261213)
  );
#227 = CARTESIAN_POINT('',(-1.52179872909,2.635832717677,1.054333087071)
  );
#228 = ADVANCED_FACE('',(#229),#245,.F.);
#229 = FACE_BOUND('',#230,.F.);
#230 = EDGE_LOOP('',(#231,#232,#239,#244));
#231 = ORIENTED_EDGE('',*,*,#218,.T.);
#232 = ORIENTED_EDGE('',*,*,#233,.T.);
#233 = EDGE_CURVE('',#212,#234,#236,.T.);
#234 = VERTEX_POINT('',#235);
#235 = CARTESIAN_POINT('',(-3.043597458179,8.615210235034E-14,
    3.162999261213));
#236 = B_SPLINE_CURVE_WITH_KNOTS('',1,(#237,#238),.UNSPECIFIED.,.F.,.F.,
  (2,2),(0.,2.886751345947),.PIECEWISE_BEZIER_KNOTS.);
#237 = CARTESIAN_POINT('',(-1.52179872909,2.635832717677,3.162999261213)
  );
#238 = CARTESIAN_POINT('',(-3.043597458179,-1.399971663193E-13,
    3.162999261213));
#239 = ORIENTED_EDGE('',*,*,#240,.F.);
#240 = EDGE_CURVE('',#119,#234,#241,.T.);
#241 = B_SPLINE_CURVE_WITH_KNOTS('',1,(#242,#243),.UNSPECIFIED.,.F.,.F.,
  (2,2),(0.,2.),.PIECEWISE_BEZIER_KNOTS.);
#242 = CARTESIAN_POINT('',(-3.043597458179,8.615210235034E-14,
    1.054333087071));
#243 = CARTESIAN_POINT('',(-3.043597458179,8.615210235034E-14,
    3.162999261213));
#244 = ORIENTED_EDGE('',*,*,#125,.F.);
#245 = B_SPLINE_SURFACE_WITH_KNOTS('',1,1,(
    (#246,#247)
    ,(#248,#249
    )),.UNSPECIFIED.,.F.,.F.,.F.,(2,2),(2,2),(0.,2.886751345947),(-2.,0.
    ),.PIECEWISE_BEZIER_KNOTS.);
#246 = CARTESIAN_POINT('',(-1.52179872909,2.635832717677,3.162999261213)
  );
#247 = CARTESIAN_POINT('',(-1.52179872909,2.635832717677,1.054333087071)
  );
#248 = CARTESIAN_POINT('',(-3.043597458179,-1.404653842669E-13,
    3.162999261213));
#249 = CARTESIAN_POINT('',(-3.043597458179,-1.404653842669E-13,
    1.054333087071));
#250 = ADVANCED_FACE('',(#251),#267,.F.);
#251 = FACE_BOUND('',#252,.F.);
#252 = EDGE_LOOP('',(#253,#254,#261,#266));
#253 = ORIENTED_EDGE('',*,*,#240,.T.);
#254 = ORIENTED_EDGE('',*,*,#255,.T.);
#255 = EDGE_CURVE('',#234,#256,#258,.T.);
#256 = VERTEX_POINT('',#257);
#257 = CARTESIAN_POINT('',(-1.521798729096,-2.63583271768,3.162999261213
    ));
#258 = B_SPLINE_CURVE_WITH_KNOTS('',1,(#259,#260),.UNSPECIFIED.,.F.,.F.,
  (2,2),(0.,2.886751345946),.PIECEWISE_BEZIER_KNOTS.);
#259 = CARTESIAN_POINT('',(-3.043597458179,8.615210235034E-14,
    3.162999261213));
#260 = CARTESIAN_POINT('',(-1.521798729096,-2.63583271768,3.162999261213
    ));
#261 = ORIENTED_EDGE('',*,*,#262,.F.);
#262 = EDGE_CURVE('',#112,#256,#263,.T.);
#263 = B_SPLINE_CURVE_WITH_KNOTS('',1,(#264,#265),.UNSPECIFIED.,.F.,.F.,
  (2,2),(0.,2.),.PIECEWISE_BEZIER_KNOTS.);
#264 = CARTESIAN_POINT('',(-1.521798729096,-2.63583271768,1.054333087071
    ));
#265 = CARTESIAN_POINT('',(-1.521798729096,-2.63583271768,3.162999261213
    ));
#266 = ORIENTED_EDGE('',*,*,#118,.F.);
#267 = B_SPLINE_SURFACE_WITH_KNOTS('',1,1,(
    (#268,#269)
    ,(#270,#271
    )),.UNSPECIFIED.,.F.,.F.,.F.,(2,2),(2,2),(0.,2.886751345946),(-2.,0.
    ),.PIECEWISE_BEZIER_KNOTS.);
#268 = CARTESIAN_POINT('',(-3.043597458179,8.615210235034E-14,
    3.162999261213));
#269 = CARTESIAN_POINT('',(-3.043597458179,8.615210235034E-14,
    1.054333087071));
#270 = CARTESIAN_POINT('',(-1.521798729096,-2.63583271768,3.162999261213
    ));
#271 = CARTESIAN_POINT('',(-1.521798729096,-2.63583271768,1.054333087071
    ));
#272 = ADVANCED_FACE('',(#273),#289,.F.);
#273 = FACE_BOUND('',#274,.F.);
#274 = EDGE_LOOP('',(#275,#276,#283,#288));
#275 = ORIENTED_EDGE('',*,*,#262,.T.);
#276 = ORIENTED_EDGE('',*,*,#277,.T.);
#277 = EDGE_CURVE('',#256,#278,#280,.T.);
#278 = VERTEX_POINT('',#279);
#279 = CARTESIAN_POINT('',(1.521798729089,-2.635832717678,3.162999261213
    ));
#280 = B_SPLINE_CURVE_WITH_KNOTS('',1,(#281,#282),.UNSPECIFIED.,.F.,.F.,
  (2,2),(0.,2.886751345953),.PIECEWISE_BEZIER_KNOTS.);
#281 = CARTESIAN_POINT('',(-1.521798729096,-2.63583271768,3.162999261213
    ));
#282 = CARTESIAN_POINT('',(1.521798729089,-2.635832717677,3.162999261213
    ));
#283 = ORIENTED_EDGE('',*,*,#284,.F.);
#284 = EDGE_CURVE('',#105,#278,#285,.T.);
#285 = B_SPLINE_CURVE_WITH_KNOTS('',1,(#286,#287),.UNSPECIFIED.,.F.,.F.,
  (2,2),(0.,2.),.PIECEWISE_BEZIER_KNOTS.);
#286 = CARTESIAN_POINT('',(1.521798729089,-2.635832717678,1.054333087071
    ));
#287 = CARTESIAN_POINT('',(1.521798729089,-2.635832717678,3.162999261213
    ));
#288 = ORIENTED_EDGE('',*,*,#111,.F.);
#289 = B_SPLINE_SURFACE_WITH_KNOTS('',1,1,(
    (#290,#291)
    ,(#292,#293
    )),.UNSPECIFIED.,.F.,.F.,.F.,(2,2),(2,2),(0.,2.886751345953),(-2.,0.
    ),.PIECEWISE_BEZIER_KNOTS.);
#290 = CARTESIAN_POINT('',(-1.521798729096,-2.63583271768,3.162999261213
    ));
#291 = CARTESIAN_POINT('',(-1.521798729096,-2.63583271768,1.054333087071
    ));
#292 = CARTESIAN_POINT('',(1.521798729089,-2.635832717677,3.162999261213
    ));
#293 = CARTESIAN_POINT('',(1.521798729089,-2.635832717677,1.054333087071
    ));
#294 = ADVANCED_FACE('',(#295),#305,.F.);
#295 = FACE_BOUND('',#296,.F.);
#296 = EDGE_LOOP('',(#297,#298,#303,#304));
#297 = ORIENTED_EDGE('',*,*,#284,.T.);
#298 = ORIENTED_EDGE('',*,*,#299,.T.);
#299 = EDGE_CURVE('',#278,#183,#300,.T.);
#300 = B_SPLINE_CURVE_WITH_KNOTS('',1,(#301,#302),.UNSPECIFIED.,.F.,.F.,
  (2,2),(0.,2.886751345948),.PIECEWISE_BEZIER_KNOTS.);
#301 = CARTESIAN_POINT('',(1.521798729089,-2.635832717678,3.162999261213
    ));
#302 = CARTESIAN_POINT('',(3.04359745818,-3.633371273036E-13,
    3.162999261213));
#303 = ORIENTED_EDGE('',*,*,#182,.F.);
#304 = ORIENTED_EDGE('',*,*,#104,.F.);
#305 = B_SPLINE_SURFACE_WITH_KNOTS('',1,1,(
    (#306,#307)
    ,(#308,#309
    )),.UNSPECIFIED.,.F.,.F.,.F.,(2,2),(2,2),(0.,2.886751345948),(-2.,0.
    ),.PIECEWISE_BEZIER_KNOTS.);
#306 = CARTESIAN_POINT('',(1.521798729089,-2.635832717678,3.162999261213
    ));
#307 = CARTESIAN_POINT('',(1.521798729089,-2.635832717678,1.054333087071
    ));
#308 = CARTESIAN_POINT('',(3.04359745818,-3.633371273036E-13,
    3.162999261213));
#309 = CARTESIAN_POINT('',(3.04359745818,-3.633371273036E-13,
    1.054333087071));
#310 = ADVANCED_FACE('',(#311,#319),#322,.T.);
#311 = FACE_BOUND('',#312,.T.);
#312 = EDGE_LOOP('',(#313,#314,#315,#316,#317,#318));
#313 = ORIENTED_EDGE('',*,*,#189,.T.);
#314 = ORIENTED_EDGE('',*,*,#211,.T.);
#315 = ORIENTED_EDGE('',*,*,#233,.T.);
#316 = ORIENTED_EDGE('',*,*,#255,.T.);
#317 = ORIENTED_EDGE('',*,*,#277,.T.);
#318 = ORIENTED_EDGE('',*,*,#299,.T.);
#319 = FACE_BOUND('',#320,.T.);
#320 = EDGE_LOOP('',(#321));
#321 = ORIENTED_EDGE('',*,*,#145,.F.);
#322 = B_SPLINE_SURFACE_WITH_KNOTS('',1,1,(
    (#323,#324)
    ,(#325,#326
    )),.UNSPECIFIED.,.F.,.F.,.F.,(2,2),(2,2),(-2.886751345946,
    2.886751345949),(-2.500000000001,2.500000000001),
  .PIECEWISE_BEZIER_KNOTS.);
#323 = CARTESIAN_POINT('',(-3.043597458179,-2.63583271768,3.162999261213
    ));
#324 = CARTESIAN_POINT('',(-3.043597458179,2.635832717678,3.162999261213
    ));
#325 = CARTESIAN_POINT('',(3.04359745818,-2.63583271768,3.162999261213)
  );
#326 = CARTESIAN_POINT('',(3.04359745818,2.635832717678,3.162999261213)
  );
#327 = ( GEOMETRIC_REPRESENTATION_CONTEXT(3) 
GLOBAL_UNCERTAINTY_ASSIGNED_CONTEXT((#331)) GLOBAL_UNIT_ASSIGNED_CONTEXT
((#328,#329,#330)) REPRESENTATION_CONTEXT('Context #1',
  '3D Context with UNIT and UNCERTAINTY') );
#328 = ( LENGTH_UNIT() NAMED_UNIT(*) SI_UNIT(.MILLI.,.METRE.) );
#329 = ( NAMED_UNIT(*) PLANE_ANGLE_UNIT() SI_UNIT($,.RADIAN.) );
#330 = ( NAMED_UNIT(*) SI_UNIT($,.STERADIAN.) SOLID_ANGLE_UNIT() );
#331 = UNCERTAINTY_MEASURE_WITH_UNIT(LENGTH_MEASURE(1.E-07),#328,
  'distance_accuracy_value','confusion accuracy');
#332 = PRODUCT_RELATED_PRODUCT_CATEGORY('part',$,(#7));
ENDSEC;
END-ISO-10303-21;
