ISO-10303-21;
HEADER;
FILE_DESCRIPTION(('FreeCAD Model'),'2;1');
FILE_NAME('Open CASCADE Shape Model','2025-05-01T19:55:12',('FreeCAD'),(
    'FreeCAD'),'Open CASCADE STEP processor 7.6','FreeCAD','Unknown');
FILE_SCHEMA(('AUTOMOTIVE_DESIGN { 1 0 10303 214 1 1 1 1 }'));
ENDSEC;
DATA;
#1 = APPLICATION_PROTOCOL_DEFINITION('international standard',
  'automotive_design',2000,#2);
#2 = APPLICATION_CONTEXT(
  'core data for automotive mechanical design processes');
#3 = SHAPE_DEFINITION_REPRESENTATION(#4,#10);
#4 = PRODUCT_DEFINITION_SHAPE('','',#5);
#5 = PRODUCT_DEFINITION('design','',#6,#9);
#6 = PRODUCT_DEFINITION_FORMATION('','',#7);
#7 = PRODUCT('Open CASCADE STEP translator 7.6 1',
  'Open CASCADE STEP translator 7.6 1','',(#8));
#8 = PRODUCT_CONTEXT('',#2,'mechanical');
#9 = PRODUCT_DEFINITION_CONTEXT('part definition',#2,'design');
#10 = SHAPE_REPRESENTATION('',(#11,#15,#189),#363);
#11 = AXIS2_PLACEMENT_3D('',#12,#13,#14);
#12 = CARTESIAN_POINT('',(0.,0.,0.));
#13 = DIRECTION('',(0.,0.,1.));
#14 = DIRECTION('',(1.,0.,-0.));
#15 = MANIFOLD_SOLID_BREP('',#16);
#16 = CLOSED_SHELL('',(#17,#53,#81,#101,#129,#151,#167,#178));
#17 = ADVANCED_FACE('',(#18),#48,.T.);
#18 = FACE_BOUND('',#19,.T.);
#19 = EDGE_LOOP('',(#20,#29,#36,#43));
#20 = ORIENTED_EDGE('',*,*,#21,.T.);
#21 = EDGE_CURVE('',#22,#24,#26,.T.);
#22 = VERTEX_POINT('',#23);
#23 = CARTESIAN_POINT('',(-50.97106069684,0.130408253261,-0.225873064582
    ));
#24 = VERTEX_POINT('',#25);
#25 = CARTESIAN_POINT('',(-50.97106069684,0.130407685329,0.225873392478)
  );
#26 = B_SPLINE_CURVE_WITH_KNOTS('',1,(#27,#28),.UNSPECIFIED.,.F.,.F.,(2,
    2),(24.842685251152,25.157314748879),.PIECEWISE_BEZIER_KNOTS.);
#27 = CARTESIAN_POINT('',(-50.97106069684,0.130408253261,-0.225873064582
    ));
#28 = CARTESIAN_POINT('',(-50.97106069684,0.130407685329,0.225873392478)
  );
#29 = ORIENTED_EDGE('',*,*,#30,.T.);
#30 = EDGE_CURVE('',#24,#31,#33,.T.);
#31 = VERTEX_POINT('',#32);
#32 = CARTESIAN_POINT('',(-1.195548301055E-14,20.724008122398,
    35.895139220902));
#33 = B_SPLINE_CURVE_WITH_KNOTS('',1,(#34,#35),.UNSPECIFIED.,.F.,.F.,(2,
    2),(0.,1.),.PIECEWISE_BEZIER_KNOTS.);
#34 = CARTESIAN_POINT('',(-50.97106069684,0.130407685329,0.225873392478)
  );
#35 = CARTESIAN_POINT('',(-1.195548301055E-14,20.724008122398,
    35.895139220902));
#36 = ORIENTED_EDGE('',*,*,#37,.F.);
#37 = EDGE_CURVE('',#38,#31,#40,.T.);
#38 = VERTEX_POINT('',#39);
#39 = CARTESIAN_POINT('',(1.195546565503E-14,20.72409837648,
    -35.89508711266));
#40 = B_SPLINE_CURVE_WITH_KNOTS('',1,(#41,#42),.UNSPECIFIED.,.F.,.F.,(2,
    2),(1.000089026312E-11,50.000000000041),.PIECEWISE_BEZIER_KNOTS.);
#41 = CARTESIAN_POINT('',(1.532410185528E-14,20.724098376482,
    -35.89508711266));
#42 = CARTESIAN_POINT('',(-2.452745921359E-14,20.724008122398,
    35.895139220902));
#43 = ORIENTED_EDGE('',*,*,#44,.F.);
#44 = EDGE_CURVE('',#22,#38,#45,.T.);
#45 = B_SPLINE_CURVE_WITH_KNOTS('',1,(#46,#47),.UNSPECIFIED.,.F.,.F.,(2,
    2),(0.,1.),.PIECEWISE_BEZIER_KNOTS.);
#46 = CARTESIAN_POINT('',(-50.97106069684,0.130408253261,-0.225873064582
    ));
#47 = CARTESIAN_POINT('',(1.195546565503E-14,20.72409837648,
    -35.89508711266));
#48 = B_SPLINE_SURFACE_WITH_KNOTS('',1,1,(
    (#49,#50)
    ,(#51,#52
    )),.UNSPECIFIED.,.F.,.F.,.F.,(2,2),(2,2),(0.,50.00000000004),(0.,1.)
  ,.PIECEWISE_BEZIER_KNOTS.);
#49 = CARTESIAN_POINT('',(-50.97106069684,0.130408253261,-0.225873064582
    ));
#50 = CARTESIAN_POINT('',(1.195546565503E-14,20.72409837648,
    -35.89508711266));
#51 = CARTESIAN_POINT('',(-50.97106069684,0.130407685329,0.225873392478)
  );
#52 = CARTESIAN_POINT('',(-1.195548301055E-14,20.724008122398,
    35.895139220902));
#53 = ADVANCED_FACE('',(#54),#76,.T.);
#54 = FACE_BOUND('',#55,.T.);
#55 = EDGE_LOOP('',(#56,#63,#70,#75));
#56 = ORIENTED_EDGE('',*,*,#57,.T.);
#57 = EDGE_CURVE('',#24,#58,#60,.T.);
#58 = VERTEX_POINT('',#59);
#59 = CARTESIAN_POINT('',(-50.97106069684,-0.26081593859,
    -3.278956625778E-07));
#60 = B_SPLINE_CURVE_WITH_KNOTS('',1,(#61,#62),.UNSPECIFIED.,.F.,.F.,(2,
    2),(24.842685251156,25.157314748884),.PIECEWISE_BEZIER_KNOTS.);
#61 = CARTESIAN_POINT('',(-50.97106069684,0.130407685333,0.225873392471)
  );
#62 = CARTESIAN_POINT('',(-50.97106069684,-0.260815938586,
    -3.279032038809E-07));
#63 = ORIENTED_EDGE('',*,*,#64,.T.);
#64 = EDGE_CURVE('',#58,#65,#67,.T.);
#65 = VERTEX_POINT('',#66);
#66 = CARTESIAN_POINT('',(1.735552347873E-20,-41.44810649887,
    -5.210821937097E-05));
#67 = B_SPLINE_CURVE_WITH_KNOTS('',1,(#68,#69),.UNSPECIFIED.,.F.,.F.,(2,
    2),(0.,1.),.PIECEWISE_BEZIER_KNOTS.);
#68 = CARTESIAN_POINT('',(-50.97106069684,-0.26081593859,
    -3.278956625778E-07));
#69 = CARTESIAN_POINT('',(1.73555234759E-20,-41.44810649887,
    -5.210821935776E-05));
#70 = ORIENTED_EDGE('',*,*,#71,.F.);
#71 = EDGE_CURVE('',#31,#65,#72,.T.);
#72 = B_SPLINE_CURVE_WITH_KNOTS('',1,(#73,#74),.UNSPECIFIED.,.F.,.F.,(2,
    2),(4.114051884133E-30,50.000000000039),.PIECEWISE_BEZIER_KNOTS.);
#73 = CARTESIAN_POINT('',(-2.452745921358E-14,20.724008122398,
    35.895139220902));
#74 = CARTESIAN_POINT('',(9.203357358299E-15,-41.44810649886,
    -5.210823335442E-05));
#75 = ORIENTED_EDGE('',*,*,#30,.F.);
#76 = B_SPLINE_SURFACE_WITH_KNOTS('',1,1,(
    (#77,#78)
    ,(#79,#80
    )),.UNSPECIFIED.,.F.,.F.,.F.,(2,2),(2,2),(0.,50.00000000004),(0.,1.)
  ,.PIECEWISE_BEZIER_KNOTS.);
#77 = CARTESIAN_POINT('',(-50.97106069684,0.130407685329,0.225873392478)
  );
#78 = CARTESIAN_POINT('',(-1.195548301055E-14,20.724008122398,
    35.895139220902));
#79 = CARTESIAN_POINT('',(-50.97106069684,-0.26081593859,
    -3.278956625778E-07));
#80 = CARTESIAN_POINT('',(1.73555234759E-20,-41.44810649887,
    -5.210821935776E-05));
#81 = ADVANCED_FACE('',(#82),#96,.T.);
#82 = FACE_BOUND('',#83,.T.);
#83 = EDGE_LOOP('',(#84,#89,#90,#95));
#84 = ORIENTED_EDGE('',*,*,#85,.T.);
#85 = EDGE_CURVE('',#58,#22,#86,.T.);
#86 = B_SPLINE_CURVE_WITH_KNOTS('',1,(#87,#88),.UNSPECIFIED.,.F.,.F.,(2,
    2),(24.842685251153,25.157314748881),.PIECEWISE_BEZIER_KNOTS.);
#87 = CARTESIAN_POINT('',(-50.97106069684,-0.260815938592,
    -3.278994622956E-07));
#88 = CARTESIAN_POINT('',(-50.97106069684,0.130408253258,-0.225873064587
    ));
#89 = ORIENTED_EDGE('',*,*,#44,.T.);
#90 = ORIENTED_EDGE('',*,*,#91,.F.);
#91 = EDGE_CURVE('',#65,#38,#92,.T.);
#92 = B_SPLINE_CURVE_WITH_KNOTS('',1,(#93,#94),.UNSPECIFIED.,.F.,.F.,(2,
    2),(4.284991436079E-15,50.000000000033),.PIECEWISE_BEZIER_KNOTS.);
#93 = CARTESIAN_POINT('',(9.203357358306E-15,-41.44810649887,
    -5.210821936174E-05));
#94 = CARTESIAN_POINT('',(1.532410185528E-14,20.724098376468,
    -35.89508711269));
#95 = ORIENTED_EDGE('',*,*,#64,.F.);
#96 = B_SPLINE_SURFACE_WITH_KNOTS('',1,1,(
    (#97,#98)
    ,(#99,#100
    )),.UNSPECIFIED.,.F.,.F.,.F.,(2,2),(2,2),(0.,50.00000000004),(0.,1.)
  ,.PIECEWISE_BEZIER_KNOTS.);
#97 = CARTESIAN_POINT('',(-50.97106069684,-0.26081593859,
    -3.278956651283E-07));
#98 = CARTESIAN_POINT('',(1.735552347791E-20,-41.44810649887,
    -5.210821936787E-05));
#99 = CARTESIAN_POINT('',(-50.97106069684,0.130408253261,-0.225873064582
    ));
#100 = CARTESIAN_POINT('',(1.195546565503E-14,20.72409837648,
    -35.89508711266));
#101 = ADVANCED_FACE('',(#102),#124,.T.);
#102 = FACE_BOUND('',#103,.T.);
#103 = EDGE_LOOP('',(#104,#105,#112,#119));
#104 = ORIENTED_EDGE('',*,*,#37,.T.);
#105 = ORIENTED_EDGE('',*,*,#106,.T.);
#106 = EDGE_CURVE('',#31,#107,#109,.T.);
#107 = VERTEX_POINT('',#108);
#108 = CARTESIAN_POINT('',(50.971060696845,0.130407685329,0.225873392478
    ));
#109 = B_SPLINE_CURVE_WITH_KNOTS('',1,(#110,#111),.UNSPECIFIED.,.F.,.F.,
  (2,2),(0.,1.),.PIECEWISE_BEZIER_KNOTS.);
#110 = CARTESIAN_POINT('',(-1.195548301055E-14,20.724008122398,
    35.895139220902));
#111 = CARTESIAN_POINT('',(50.971060696845,0.130407685329,0.225873392478
    ));
#112 = ORIENTED_EDGE('',*,*,#113,.F.);
#113 = EDGE_CURVE('',#114,#107,#116,.T.);
#114 = VERTEX_POINT('',#115);
#115 = CARTESIAN_POINT('',(50.971060696845,0.130408253261,
    -0.225873064582));
#116 = B_SPLINE_CURVE_WITH_KNOTS('',1,(#117,#118),.UNSPECIFIED.,.F.,.F.,
  (2,2),(24.842685251152,25.157314748879),.PIECEWISE_BEZIER_KNOTS.);
#117 = CARTESIAN_POINT('',(50.971060696845,0.130408253261,
    -0.225873064582));
#118 = CARTESIAN_POINT('',(50.971060696845,0.130407685329,0.225873392478
    ));
#119 = ORIENTED_EDGE('',*,*,#120,.F.);
#120 = EDGE_CURVE('',#38,#114,#121,.T.);
#121 = B_SPLINE_CURVE_WITH_KNOTS('',1,(#122,#123),.UNSPECIFIED.,.F.,.F.,
  (2,2),(0.,1.),.PIECEWISE_BEZIER_KNOTS.);
#122 = CARTESIAN_POINT('',(1.195546565503E-14,20.72409837648,
    -35.89508711266));
#123 = CARTESIAN_POINT('',(50.971060696845,0.130408253261,
    -0.225873064582));
#124 = B_SPLINE_SURFACE_WITH_KNOTS('',1,1,(
    (#125,#126)
    ,(#127,#128
    )),.UNSPECIFIED.,.F.,.F.,.F.,(2,2),(2,2),(0.,50.00000000004),(0.,1.)
  ,.PIECEWISE_BEZIER_KNOTS.);
#125 = CARTESIAN_POINT('',(1.195546565503E-14,20.72409837648,
    -35.89508711266));
#126 = CARTESIAN_POINT('',(50.971060696845,0.130408253261,
    -0.225873064582));
#127 = CARTESIAN_POINT('',(-1.195548301055E-14,20.724008122398,
    35.895139220902));
#128 = CARTESIAN_POINT('',(50.971060696845,0.130407685329,0.225873392478
    ));
#129 = ADVANCED_FACE('',(#130),#146,.T.);
#130 = FACE_BOUND('',#131,.T.);
#131 = EDGE_LOOP('',(#132,#133,#140,#145));
#132 = ORIENTED_EDGE('',*,*,#71,.T.);
#133 = ORIENTED_EDGE('',*,*,#134,.T.);
#134 = EDGE_CURVE('',#65,#135,#137,.T.);
#135 = VERTEX_POINT('',#136);
#136 = CARTESIAN_POINT('',(50.971060696845,-0.26081593859,
    -3.2789565126E-07));
#137 = B_SPLINE_CURVE_WITH_KNOTS('',1,(#138,#139),.UNSPECIFIED.,.F.,.F.,
  (2,2),(0.,1.),.PIECEWISE_BEZIER_KNOTS.);
#138 = CARTESIAN_POINT('',(1.73555234759E-20,-41.44810649887,
    -5.210821935776E-05));
#139 = CARTESIAN_POINT('',(50.971060696845,-0.26081593859,
    -3.2789565126E-07));
#140 = ORIENTED_EDGE('',*,*,#141,.F.);
#141 = EDGE_CURVE('',#107,#135,#142,.T.);
#142 = B_SPLINE_CURVE_WITH_KNOTS('',1,(#143,#144),.UNSPECIFIED.,.F.,.F.,
  (2,2),(24.842685251156,25.157314748884),.PIECEWISE_BEZIER_KNOTS.);
#143 = CARTESIAN_POINT('',(50.971060696845,0.130407685333,0.225873392471
    ));
#144 = CARTESIAN_POINT('',(50.971060696845,-0.260815938586,
    -3.279032013304E-07));
#145 = ORIENTED_EDGE('',*,*,#106,.F.);
#146 = B_SPLINE_SURFACE_WITH_KNOTS('',1,1,(
    (#147,#148)
    ,(#149,#150
    )),.UNSPECIFIED.,.F.,.F.,.F.,(2,2),(2,2),(0.,50.00000000004),(0.,1.)
  ,.PIECEWISE_BEZIER_KNOTS.);
#147 = CARTESIAN_POINT('',(-1.195548301055E-14,20.724008122398,
    35.895139220902));
#148 = CARTESIAN_POINT('',(50.971060696845,0.130407685329,0.225873392478
    ));
#149 = CARTESIAN_POINT('',(1.73555234759E-20,-41.44810649887,
    -5.210821935776E-05));
#150 = CARTESIAN_POINT('',(50.971060696845,-0.26081593859,
    -3.2789565126E-07));
#151 = ADVANCED_FACE('',(#152),#162,.T.);
#152 = FACE_BOUND('',#153,.T.);
#153 = EDGE_LOOP('',(#154,#155,#156,#161));
#154 = ORIENTED_EDGE('',*,*,#91,.T.);
#155 = ORIENTED_EDGE('',*,*,#120,.T.);
#156 = ORIENTED_EDGE('',*,*,#157,.F.);
#157 = EDGE_CURVE('',#135,#114,#158,.T.);
#158 = B_SPLINE_CURVE_WITH_KNOTS('',1,(#159,#160),.UNSPECIFIED.,.F.,.F.,
  (2,2),(24.842685251153,25.157314748881),.PIECEWISE_BEZIER_KNOTS.);
#159 = CARTESIAN_POINT('',(50.971060696845,-0.260815938592,
    -3.278994597451E-07));
#160 = CARTESIAN_POINT('',(50.971060696845,0.130408253258,
    -0.225873064587));
#161 = ORIENTED_EDGE('',*,*,#134,.F.);
#162 = B_SPLINE_SURFACE_WITH_KNOTS('',1,1,(
    (#163,#164)
    ,(#165,#166
    )),.UNSPECIFIED.,.F.,.F.,.F.,(2,2),(2,2),(0.,50.00000000004),(0.,1.)
  ,.PIECEWISE_BEZIER_KNOTS.);
#163 = CARTESIAN_POINT('',(1.735552347791E-20,-41.44810649887,
    -5.210821936787E-05));
#164 = CARTESIAN_POINT('',(50.971060696845,-0.26081593859,
    -3.278956538104E-07));
#165 = CARTESIAN_POINT('',(1.195546565503E-14,20.72409837648,
    -35.89508711266));
#166 = CARTESIAN_POINT('',(50.971060696845,0.130408253261,
    -0.225873064582));
#167 = ADVANCED_FACE('',(#168),#173,.F.);
#168 = FACE_BOUND('',#169,.F.);
#169 = EDGE_LOOP('',(#170,#171,#172));
#170 = ORIENTED_EDGE('',*,*,#21,.T.);
#171 = ORIENTED_EDGE('',*,*,#57,.T.);
#172 = ORIENTED_EDGE('',*,*,#85,.T.);
#173 = B_SPLINE_SURFACE_WITH_KNOTS('',1,1,(
    (#174,#175)
    ,(#176,#177
    )),.UNSPECIFIED.,.F.,.F.,.F.,(2,2),(2,2),(-2.989608560711E-12,
    0.314629497727),(-2.959410494441E-12,0.272477137814),
  .PIECEWISE_BEZIER_KNOTS.);
#174 = CARTESIAN_POINT('',(-50.97106069684,0.130408253265,
    -0.225873064587));
#175 = CARTESIAN_POINT('',(-50.97106069684,-0.260815654626,
    -0.22587355643));
#176 = CARTESIAN_POINT('',(-50.97106069684,0.130407685333,0.225873392478
    ));
#177 = CARTESIAN_POINT('',(-50.97106069684,-0.260816222558,
    0.225872900635));
#178 = ADVANCED_FACE('',(#179),#184,.T.);
#179 = FACE_BOUND('',#180,.T.);
#180 = EDGE_LOOP('',(#181,#182,#183));
#181 = ORIENTED_EDGE('',*,*,#113,.T.);
#182 = ORIENTED_EDGE('',*,*,#141,.T.);
#183 = ORIENTED_EDGE('',*,*,#157,.T.);
#184 = B_SPLINE_SURFACE_WITH_KNOTS('',1,1,(
    (#185,#186)
    ,(#187,#188
    )),.UNSPECIFIED.,.F.,.F.,.F.,(2,2),(2,2),(-2.984279490192E-12,
    0.314629497727),(-2.955857780762E-12,0.272477137814),
  .PIECEWISE_BEZIER_KNOTS.);
#185 = CARTESIAN_POINT('',(50.971060696845,0.130408253265,
    -0.225873064587));
#186 = CARTESIAN_POINT('',(50.971060696845,-0.260815654626,
    -0.22587355643));
#187 = CARTESIAN_POINT('',(50.971060696845,0.130407685333,0.225873392478
    ));
#188 = CARTESIAN_POINT('',(50.971060696845,-0.260816222558,
    0.225872900635));
#189 = MANIFOLD_SOLID_BREP('',#190);
#190 = CLOSED_SHELL('',(#191,#227,#255,#275,#303,#325,#341,#352));
#191 = ADVANCED_FACE('',(#192),#222,.T.);
#192 = FACE_BOUND('',#193,.T.);
#193 = EDGE_LOOP('',(#194,#203,#210,#217));
#194 = ORIENTED_EDGE('',*,*,#195,.T.);
#195 = EDGE_CURVE('',#196,#198,#200,.T.);
#196 = VERTEX_POINT('',#197);
#197 = CARTESIAN_POINT('',(-50.97106069684,0.260673594646,
    -8.615733237295E-03));
#198 = VERTEX_POINT('',#199);
#199 = CARTESIAN_POINT('',(-50.97106069684,-0.122875353468,
    0.230057821679));
#200 = B_SPLINE_CURVE_WITH_KNOTS('',1,(#201,#202),.UNSPECIFIED.,.F.,.F.,
  (2,2),(24.842685251152,25.15731474884),.PIECEWISE_BEZIER_KNOTS.);
#201 = CARTESIAN_POINT('',(-50.97106069684,0.26067359466,
    -8.615733215517E-03));
#202 = CARTESIAN_POINT('',(-50.97106069684,-0.122875353454,
    0.230057821701));
#203 = ORIENTED_EDGE('',*,*,#204,.T.);
#204 = EDGE_CURVE('',#198,#205,#207,.T.);
#205 = VERTEX_POINT('',#206);
#206 = CARTESIAN_POINT('',(-1.217696493018E-14,-19.52699196526,
    36.560116481364));
#207 = B_SPLINE_CURVE_WITH_KNOTS('',1,(#208,#209),.UNSPECIFIED.,.F.,.F.,
  (2,2),(0.,1.),.PIECEWISE_BEZIER_KNOTS.);
#208 = CARTESIAN_POINT('',(-50.97106069684,-0.122875353468,
    0.230057821679));
#209 = CARTESIAN_POINT('',(-1.217696493018E-14,-19.52699196526,
    36.560116481364));
#210 = ORIENTED_EDGE('',*,*,#211,.F.);
#211 = EDGE_CURVE('',#212,#205,#214,.T.);
#212 = VERTEX_POINT('',#213);
#213 = CARTESIAN_POINT('',(4.560309261105E-16,41.425485620812,
    -1.369187139267));
#214 = B_SPLINE_CURVE_WITH_KNOTS('',1,(#215,#216),.UNSPECIFIED.,.F.,.F.,
  (2,2),(-6.489568808075E-31,49.999999999997),.PIECEWISE_BEZIER_KNOTS.);
#215 = CARTESIAN_POINT('',(-8.438254044983E-15,41.425485620812,
    -1.369187139267));
#216 = CARTESIAN_POINT('',(-1.595907833399E-14,-19.52699196524,
    36.560116481389));
#217 = ORIENTED_EDGE('',*,*,#218,.F.);
#218 = EDGE_CURVE('',#196,#212,#219,.T.);
#219 = B_SPLINE_CURVE_WITH_KNOTS('',1,(#220,#221),.UNSPECIFIED.,.F.,.F.,
  (2,2),(0.,1.),.PIECEWISE_BEZIER_KNOTS.);
#220 = CARTESIAN_POINT('',(-50.97106069684,0.260673594646,
    -8.615733237295E-03));
#221 = CARTESIAN_POINT('',(4.560309261105E-16,41.425485620812,
    -1.369187139267));
#222 = B_SPLINE_SURFACE_WITH_KNOTS('',1,1,(
    (#223,#224)
    ,(#225,#226
  )),.UNSPECIFIED.,.F.,.F.,.F.,(2,2),(2,2),(0.,50.),(0.,1.),
  .PIECEWISE_BEZIER_KNOTS.);
#223 = CARTESIAN_POINT('',(-50.97106069684,0.260673594646,
    -8.615733237295E-03));
#224 = CARTESIAN_POINT('',(4.560309261105E-16,41.425485620812,
    -1.369187139267));
#225 = CARTESIAN_POINT('',(-50.97106069684,-0.122875353468,
    0.230057821679));
#226 = CARTESIAN_POINT('',(-1.217696493018E-14,-19.52699196526,
    36.560116481364));
#227 = ADVANCED_FACE('',(#228),#250,.T.);
#228 = FACE_BOUND('',#229,.T.);
#229 = EDGE_LOOP('',(#230,#237,#244,#249));
#230 = ORIENTED_EDGE('',*,*,#231,.T.);
#231 = EDGE_CURVE('',#198,#232,#234,.T.);
#232 = VERTEX_POINT('',#233);
#233 = CARTESIAN_POINT('',(-50.97106069684,-0.137798241179,
    -0.221442088442));
#234 = B_SPLINE_CURVE_WITH_KNOTS('',1,(#235,#236),.UNSPECIFIED.,.F.,.F.,
  (2,2),(24.842685251156,25.157314748844),.PIECEWISE_BEZIER_KNOTS.);
#235 = CARTESIAN_POINT('',(-50.97106069684,-0.122875353468,
    0.230057821679));
#236 = CARTESIAN_POINT('',(-50.97106069684,-0.13779824118,
    -0.221442088442));
#237 = ORIENTED_EDGE('',*,*,#238,.T.);
#238 = EDGE_CURVE('',#232,#239,#241,.T.);
#239 = VERTEX_POINT('',#240);
#240 = CARTESIAN_POINT('',(1.172093400407E-14,-21.89849365553,
    -35.19092934208));
#241 = B_SPLINE_CURVE_WITH_KNOTS('',1,(#242,#243),.UNSPECIFIED.,.F.,.F.,
  (2,2),(0.,1.),.PIECEWISE_BEZIER_KNOTS.);
#242 = CARTESIAN_POINT('',(-50.97106069684,-0.137798241179,
    -0.221442088442));
#243 = CARTESIAN_POINT('',(1.172093400407E-14,-21.89849365553,
    -35.19092934208));
#244 = ORIENTED_EDGE('',*,*,#245,.F.);
#245 = EDGE_CURVE('',#205,#239,#246,.T.);
#246 = B_SPLINE_CURVE_WITH_KNOTS('',1,(#247,#248),.UNSPECIFIED.,.F.,.F.,
  (2,2),(1.480766017839E-30,49.999999999993),.PIECEWISE_BEZIER_KNOTS.);
#247 = CARTESIAN_POINT('',(-1.595907833399E-14,-19.52699196526,
    36.560116481364));
#248 = CARTESIAN_POINT('',(2.439733237895E-14,-21.89849365554,
    -35.19092934208));
#249 = ORIENTED_EDGE('',*,*,#204,.F.);
#250 = B_SPLINE_SURFACE_WITH_KNOTS('',1,1,(
    (#251,#252)
    ,(#253,#254
  )),.UNSPECIFIED.,.F.,.F.,.F.,(2,2),(2,2),(0.,50.),(0.,1.),
  .PIECEWISE_BEZIER_KNOTS.);
#251 = CARTESIAN_POINT('',(-50.97106069684,-0.122875353468,
    0.230057821679));
#252 = CARTESIAN_POINT('',(-1.217696493018E-14,-19.52699196526,
    36.560116481364));
#253 = CARTESIAN_POINT('',(-50.97106069684,-0.137798241179,
    -0.221442088442));
#254 = CARTESIAN_POINT('',(1.172093400407E-14,-21.89849365553,
    -35.19092934208));
#255 = ADVANCED_FACE('',(#256),#270,.T.);
#256 = FACE_BOUND('',#257,.T.);
#257 = EDGE_LOOP('',(#258,#263,#264,#269));
#258 = ORIENTED_EDGE('',*,*,#259,.T.);
#259 = EDGE_CURVE('',#232,#196,#260,.T.);
#260 = B_SPLINE_CURVE_WITH_KNOTS('',1,(#261,#262),.UNSPECIFIED.,.F.,.F.,
  (2,2),(24.842685251149,25.157314748837),.PIECEWISE_BEZIER_KNOTS.);
#261 = CARTESIAN_POINT('',(-50.97106069684,-0.137798241184,
    -0.221442088434));
#262 = CARTESIAN_POINT('',(-50.97106069684,0.260673594642,
    -8.615733229624E-03));
#263 = ORIENTED_EDGE('',*,*,#218,.T.);
#264 = ORIENTED_EDGE('',*,*,#265,.F.);
#265 = EDGE_CURVE('',#239,#212,#266,.T.);
#266 = B_SPLINE_CURVE_WITH_KNOTS('',1,(#267,#268),.UNSPECIFIED.,.F.,.F.,
  (2,2),(4.038127388671E-30,49.999999999989),.PIECEWISE_BEZIER_KNOTS.);
#267 = CARTESIAN_POINT('',(2.439733237897E-14,-21.89849365553,
    -35.19092934208));
#268 = CARTESIAN_POINT('',(-8.438254044986E-15,41.425485620811,
    -1.369187139265));
#269 = ORIENTED_EDGE('',*,*,#238,.F.);
#270 = B_SPLINE_SURFACE_WITH_KNOTS('',1,1,(
    (#271,#272)
    ,(#273,#274
  )),.UNSPECIFIED.,.F.,.F.,.F.,(2,2),(2,2),(0.,50.),(0.,1.),
  .PIECEWISE_BEZIER_KNOTS.);
#271 = CARTESIAN_POINT('',(-50.97106069684,-0.137798241179,
    -0.221442088442));
#272 = CARTESIAN_POINT('',(1.172093400407E-14,-21.89849365553,
    -35.19092934208));
#273 = CARTESIAN_POINT('',(-50.97106069684,0.260673594646,
    -8.615733237295E-03));
#274 = CARTESIAN_POINT('',(4.560309261105E-16,41.425485620812,
    -1.369187139267));
#275 = ADVANCED_FACE('',(#276),#298,.T.);
#276 = FACE_BOUND('',#277,.T.);
#277 = EDGE_LOOP('',(#278,#279,#286,#293));
#278 = ORIENTED_EDGE('',*,*,#211,.T.);
#279 = ORIENTED_EDGE('',*,*,#280,.T.);
#280 = EDGE_CURVE('',#205,#281,#283,.T.);
#281 = VERTEX_POINT('',#282);
#282 = CARTESIAN_POINT('',(50.971060696845,-0.122875353468,
    0.230057821679));
#283 = B_SPLINE_CURVE_WITH_KNOTS('',1,(#284,#285),.UNSPECIFIED.,.F.,.F.,
  (2,2),(0.,1.),.PIECEWISE_BEZIER_KNOTS.);
#284 = CARTESIAN_POINT('',(-1.217696493018E-14,-19.52699196526,
    36.560116481364));
#285 = CARTESIAN_POINT('',(50.971060696845,-0.122875353468,
    0.230057821679));
#286 = ORIENTED_EDGE('',*,*,#287,.F.);
#287 = EDGE_CURVE('',#288,#281,#290,.T.);
#288 = VERTEX_POINT('',#289);
#289 = CARTESIAN_POINT('',(50.971060696845,0.260673594646,
    -8.615733237285E-03));
#290 = B_SPLINE_CURVE_WITH_KNOTS('',1,(#291,#292),.UNSPECIFIED.,.F.,.F.,
  (2,2),(24.842685251152,25.15731474884),.PIECEWISE_BEZIER_KNOTS.);
#291 = CARTESIAN_POINT('',(50.971060696845,0.26067359466,
    -8.615733215517E-03));
#292 = CARTESIAN_POINT('',(50.971060696845,-0.122875353454,
    0.230057821701));
#293 = ORIENTED_EDGE('',*,*,#294,.F.);
#294 = EDGE_CURVE('',#212,#288,#295,.T.);
#295 = B_SPLINE_CURVE_WITH_KNOTS('',1,(#296,#297),.UNSPECIFIED.,.F.,.F.,
  (2,2),(0.,1.),.PIECEWISE_BEZIER_KNOTS.);
#296 = CARTESIAN_POINT('',(4.560309261105E-16,41.425485620812,
    -1.369187139267));
#297 = CARTESIAN_POINT('',(50.971060696845,0.260673594646,
    -8.615733237285E-03));
#298 = B_SPLINE_SURFACE_WITH_KNOTS('',1,1,(
    (#299,#300)
    ,(#301,#302
  )),.UNSPECIFIED.,.F.,.F.,.F.,(2,2),(2,2),(0.,50.),(0.,1.),
  .PIECEWISE_BEZIER_KNOTS.);
#299 = CARTESIAN_POINT('',(4.560309261105E-16,41.425485620812,
    -1.369187139267));
#300 = CARTESIAN_POINT('',(50.971060696845,0.260673594646,
    -8.615733237285E-03));
#301 = CARTESIAN_POINT('',(-1.217696493018E-14,-19.52699196526,
    36.560116481364));
#302 = CARTESIAN_POINT('',(50.971060696845,-0.122875353468,
    0.230057821679));
#303 = ADVANCED_FACE('',(#304),#320,.T.);
#304 = FACE_BOUND('',#305,.T.);
#305 = EDGE_LOOP('',(#306,#307,#314,#319));
#306 = ORIENTED_EDGE('',*,*,#245,.T.);
#307 = ORIENTED_EDGE('',*,*,#308,.T.);
#308 = EDGE_CURVE('',#239,#309,#311,.T.);
#309 = VERTEX_POINT('',#310);
#310 = CARTESIAN_POINT('',(50.971060696845,-0.137798241179,
    -0.221442088442));
#311 = B_SPLINE_CURVE_WITH_KNOTS('',1,(#312,#313),.UNSPECIFIED.,.F.,.F.,
  (2,2),(0.,1.),.PIECEWISE_BEZIER_KNOTS.);
#312 = CARTESIAN_POINT('',(1.172093400407E-14,-21.89849365553,
    -35.19092934208));
#313 = CARTESIAN_POINT('',(50.971060696845,-0.137798241179,
    -0.221442088442));
#314 = ORIENTED_EDGE('',*,*,#315,.F.);
#315 = EDGE_CURVE('',#281,#309,#316,.T.);
#316 = B_SPLINE_CURVE_WITH_KNOTS('',1,(#317,#318),.UNSPECIFIED.,.F.,.F.,
  (2,2),(24.842685251156,25.157314748844),.PIECEWISE_BEZIER_KNOTS.);
#317 = CARTESIAN_POINT('',(50.971060696845,-0.122875353468,
    0.230057821679));
#318 = CARTESIAN_POINT('',(50.971060696845,-0.13779824118,
    -0.221442088442));
#319 = ORIENTED_EDGE('',*,*,#280,.F.);
#320 = B_SPLINE_SURFACE_WITH_KNOTS('',1,1,(
    (#321,#322)
    ,(#323,#324
  )),.UNSPECIFIED.,.F.,.F.,.F.,(2,2),(2,2),(0.,50.),(0.,1.),
  .PIECEWISE_BEZIER_KNOTS.);
#321 = CARTESIAN_POINT('',(-1.217696493018E-14,-19.52699196526,
    36.560116481364));
#322 = CARTESIAN_POINT('',(50.971060696845,-0.122875353468,
    0.230057821679));
#323 = CARTESIAN_POINT('',(1.172093400407E-14,-21.89849365553,
    -35.19092934208));
#324 = CARTESIAN_POINT('',(50.971060696845,-0.137798241179,
    -0.221442088442));
#325 = ADVANCED_FACE('',(#326),#336,.T.);
#326 = FACE_BOUND('',#327,.T.);
#327 = EDGE_LOOP('',(#328,#329,#330,#335));
#328 = ORIENTED_EDGE('',*,*,#265,.T.);
#329 = ORIENTED_EDGE('',*,*,#294,.T.);
#330 = ORIENTED_EDGE('',*,*,#331,.F.);
#331 = EDGE_CURVE('',#309,#288,#332,.T.);
#332 = B_SPLINE_CURVE_WITH_KNOTS('',1,(#333,#334),.UNSPECIFIED.,.F.,.F.,
  (2,2),(24.842685251149,25.157314748837),.PIECEWISE_BEZIER_KNOTS.);
#333 = CARTESIAN_POINT('',(50.971060696845,-0.137798241184,
    -0.221442088434));
#334 = CARTESIAN_POINT('',(50.971060696845,0.260673594642,
    -8.615733229621E-03));
#335 = ORIENTED_EDGE('',*,*,#308,.F.);
#336 = B_SPLINE_SURFACE_WITH_KNOTS('',1,1,(
    (#337,#338)
    ,(#339,#340
  )),.UNSPECIFIED.,.F.,.F.,.F.,(2,2),(2,2),(0.,50.),(0.,1.),
  .PIECEWISE_BEZIER_KNOTS.);
#337 = CARTESIAN_POINT('',(1.172093400407E-14,-21.89849365553,
    -35.19092934208));
#338 = CARTESIAN_POINT('',(50.971060696845,-0.137798241179,
    -0.221442088442));
#339 = CARTESIAN_POINT('',(4.560309261105E-16,41.425485620812,
    -1.369187139267));
#340 = CARTESIAN_POINT('',(50.971060696845,0.260673594646,
    -8.615733237285E-03));
#341 = ADVANCED_FACE('',(#342),#347,.F.);
#342 = FACE_BOUND('',#343,.F.);
#343 = EDGE_LOOP('',(#344,#345,#346));
#344 = ORIENTED_EDGE('',*,*,#195,.T.);
#345 = ORIENTED_EDGE('',*,*,#231,.T.);
#346 = ORIENTED_EDGE('',*,*,#259,.T.);
#347 = B_SPLINE_SURFACE_WITH_KNOTS('',1,1,(
    (#348,#349)
    ,(#350,#351
    )),.UNSPECIFIED.,.F.,.F.,.F.,(2,2),(2,2),(0.,0.314629497688),(
    -1.786659709069E-11,0.272477137778),.PIECEWISE_BEZIER_KNOTS.);
#348 = CARTESIAN_POINT('',(-50.97106069684,0.26067359466,
    -8.615733215515E-03));
#349 = CARTESIAN_POINT('',(-50.97106069684,5.397623287723E-02,
    -0.3407788659));
#350 = CARTESIAN_POINT('',(-50.97106069684,-0.122875353455,
    0.230057821701));
#351 = CARTESIAN_POINT('',(-50.97106069684,-0.329572715237,
    -0.102105310983));
#352 = ADVANCED_FACE('',(#353),#358,.T.);
#353 = FACE_BOUND('',#354,.T.);
#354 = EDGE_LOOP('',(#355,#356,#357));
#355 = ORIENTED_EDGE('',*,*,#287,.T.);
#356 = ORIENTED_EDGE('',*,*,#315,.T.);
#357 = ORIENTED_EDGE('',*,*,#331,.T.);
#358 = B_SPLINE_SURFACE_WITH_KNOTS('',1,1,(
    (#359,#360)
    ,(#361,#362
    )),.UNSPECIFIED.,.F.,.F.,.F.,(2,2),(2,2),(0.,0.314629497688),(
    -1.786126802017E-11,0.272477137778),.PIECEWISE_BEZIER_KNOTS.);
#359 = CARTESIAN_POINT('',(50.971060696845,0.26067359466,
    -8.615733215512E-03));
#360 = CARTESIAN_POINT('',(50.971060696845,5.397623287723E-02,
    -0.3407788659));
#361 = CARTESIAN_POINT('',(50.971060696845,-0.122875353455,
    0.230057821701));
#362 = CARTESIAN_POINT('',(50.971060696845,-0.329572715237,
    -0.102105310983));
#363 = ( GEOMETRIC_REPRESENTATION_CONTEXT(3) 
GLOBAL_UNCERTAINTY_ASSIGNED_CONTEXT((#367)) GLOBAL_UNIT_ASSIGNED_CONTEXT
((#364,#365,#366)) REPRESENTATION_CONTEXT('Context #1',
  '3D Context with UNIT and UNCERTAINTY') );
#364 = ( LENGTH_UNIT() NAMED_UNIT(*) SI_UNIT(.MILLI.,.METRE.) );
#365 = ( NAMED_UNIT(*) PLANE_ANGLE_UNIT() SI_UNIT($,.RADIAN.) );
#366 = ( NAMED_UNIT(*) SI_UNIT($,.STERADIAN.) SOLID_ANGLE_UNIT() );
#367 = UNCERTAINTY_MEASURE_WITH_UNIT(LENGTH_MEASURE(2.E-07),#364,
  'distance_accuracy_value','confusion accuracy');
#368 = PRODUCT_RELATED_PRODUCT_CATEGORY('part',$,(#7));
ENDSEC;
END-ISO-10303-21;
