ISO-10303-21;
HEADER;
FILE_DESCRIPTION(('FreeCAD Model'),'2;1');
FILE_NAME('Open CASCADE Shape Model','2025-05-01T08:16:53',('FreeCAD'),(
    'FreeCAD'),'Open CASCADE STEP processor 7.6','FreeCAD','Unknown');
FILE_SCHEMA(('AUTOMOTIVE_DESIGN { 1 0 10303 214 1 1 1 1 }'));
ENDSEC;
DATA;
#1 = APPLICATION_PROTOCOL_DEFINITION('international standard',
  'automotive_design',2000,#2);
#2 = APPLICATION_CONTEXT(
  'core data for automotive mechanical design processes');
#3 = SHAPE_DEFINITION_REPRESENTATION(#4,#10);
#4 = PRODUCT_DEFINITION_SHAPE('','',#5);
#5 = PRODUCT_DEFINITION('design','',#6,#9);
#6 = PRODUCT_DEFINITION_FORMATION('','',#7);
#7 = PRODUCT('Open CASCADE STEP translator 7.6 1',
  'Open CASCADE STEP translator 7.6 1','',(#8));
#8 = PRODUCT_CONTEXT('',#2,'mechanical');
#9 = PRODUCT_DEFINITION_CONTEXT('part definition',#2,'design');
#10 = ADVANCED_BREP_SHAPE_REPRESENTATION('',(#11,#15),#415);
#11 = AXIS2_PLACEMENT_3D('',#12,#13,#14);
#12 = CARTESIAN_POINT('',(0.,0.,0.));
#13 = DIRECTION('',(0.,0.,1.));
#14 = DIRECTION('',(1.,0.,-0.));
#15 = MANIFOLD_SOLID_BREP('',#16);
#16 = CLOSED_SHELL('',(#17,#60,#102,#144,#181,#223,#250,#272,#284,#296,
    #341,#359,#373,#393,#404));
#17 = ADVANCED_FACE('',(#18),#55,.T.);
#18 = FACE_BOUND('',#19,.T.);
#19 = EDGE_LOOP('',(#20,#29,#36,#43,#50));
#20 = ORIENTED_EDGE('',*,*,#21,.F.);
#21 = EDGE_CURVE('',#22,#24,#26,.T.);
#22 = VERTEX_POINT('',#23);
#23 = CARTESIAN_POINT('',(-20.68485508579,11.819917191883,
    -5.909958595941));
#24 = VERTEX_POINT('',#25);
#25 = CARTESIAN_POINT('',(-20.68485508579,11.819917191883,
    -20.68485508579));
#26 = B_SPLINE_CURVE_WITH_KNOTS('',1,(#27,#28),.UNSPECIFIED.,.F.,.F.,(2,
    2),(27.,42.),.PIECEWISE_BEZIER_KNOTS.);
#27 = CARTESIAN_POINT('',(-20.68485508579,11.819917191883,
    -5.909958595941));
#28 = CARTESIAN_POINT('',(-20.68485508579,11.819917191883,
    -20.68485508579));
#29 = ORIENTED_EDGE('',*,*,#30,.T.);
#30 = EDGE_CURVE('',#22,#31,#33,.T.);
#31 = VERTEX_POINT('',#32);
#32 = CARTESIAN_POINT('',(32.504772277678,11.819917191883,
    -5.909958595941));
#33 = B_SPLINE_CURVE_WITH_KNOTS('',1,(#34,#35),.UNSPECIFIED.,.F.,.F.,(2,
    2),(0.,54.),.PIECEWISE_BEZIER_KNOTS.);
#34 = CARTESIAN_POINT('',(-20.68485508579,11.819917191883,
    -5.909958595941));
#35 = CARTESIAN_POINT('',(32.504772277678,11.819917191883,
    -5.909958595941));
#36 = ORIENTED_EDGE('',*,*,#37,.T.);
#37 = EDGE_CURVE('',#31,#38,#40,.T.);
#38 = VERTEX_POINT('',#39);
#39 = CARTESIAN_POINT('',(32.504772277678,11.819917191883,
    -8.864937893912));
#40 = B_SPLINE_CURVE_WITH_KNOTS('',1,(#41,#42),.UNSPECIFIED.,.F.,.F.,(2,
    2),(-15.,-12.),.PIECEWISE_BEZIER_KNOTS.);
#41 = CARTESIAN_POINT('',(32.504772277678,11.819917191883,
    -5.909958595941));
#42 = CARTESIAN_POINT('',(32.504772277678,11.819917191883,
    -8.864937893912));
#43 = ORIENTED_EDGE('',*,*,#44,.T.);
#44 = EDGE_CURVE('',#38,#45,#47,.T.);
#45 = VERTEX_POINT('',#46);
#46 = CARTESIAN_POINT('',(20.684855085795,11.819917191883,
    -20.68485508579));
#47 = B_SPLINE_CURVE_WITH_KNOTS('',1,(#48,#49),.UNSPECIFIED.,.F.,.F.,(2,
    2),(-16.97056274847,3.014577520673E-14),.PIECEWISE_BEZIER_KNOTS.);
#48 = CARTESIAN_POINT('',(32.504772277678,11.819917191883,
    -8.864937893912));
#49 = CARTESIAN_POINT('',(20.684855085795,11.819917191883,
    -20.68485508579));
#50 = ORIENTED_EDGE('',*,*,#51,.T.);
#51 = EDGE_CURVE('',#45,#24,#52,.T.);
#52 = B_SPLINE_CURVE_WITH_KNOTS('',1,(#53,#54),.UNSPECIFIED.,.F.,.F.,(2,
    2),(-54.,-12.),.PIECEWISE_BEZIER_KNOTS.);
#53 = CARTESIAN_POINT('',(20.684855085795,11.819917191883,
    -20.68485508579));
#54 = CARTESIAN_POINT('',(-20.68485508579,11.819917191883,
    -20.68485508579));
#55 = B_SPLINE_SURFACE_WITH_KNOTS('',1,1,(
    (#56,#57)
    ,(#58,#59
    )),.UNSPECIFIED.,.F.,.F.,.F.,(2,2),(2,2),(-21.,-6.),(-21.,33.),
  .PIECEWISE_BEZIER_KNOTS.);
#56 = CARTESIAN_POINT('',(-20.68485508579,11.819917191883,
    -20.68485508579));
#57 = CARTESIAN_POINT('',(32.504772277678,11.819917191883,
    -20.68485508579));
#58 = CARTESIAN_POINT('',(-20.68485508579,11.819917191883,
    -5.909958595941));
#59 = CARTESIAN_POINT('',(32.504772277678,11.819917191883,
    -5.909958595941));
#60 = ADVANCED_FACE('',(#61),#97,.F.);
#61 = FACE_BOUND('',#62,.T.);
#62 = EDGE_LOOP('',(#63,#72,#77,#78,#85,#92));
#63 = ORIENTED_EDGE('',*,*,#64,.T.);
#64 = EDGE_CURVE('',#65,#67,#69,.T.);
#65 = VERTEX_POINT('',#66);
#66 = CARTESIAN_POINT('',(32.504772277678,0.,8.864937893912));
#67 = VERTEX_POINT('',#68);
#68 = CARTESIAN_POINT('',(32.504772277678,0.,-8.864937893912));
#69 = B_SPLINE_CURVE_WITH_KNOTS('',1,(#70,#71),.UNSPECIFIED.,.F.,.F.,(2,
    2),(-30.,-12.),.PIECEWISE_BEZIER_KNOTS.);
#70 = CARTESIAN_POINT('',(32.504772277678,0.,8.864937893912));
#71 = CARTESIAN_POINT('',(32.504772277678,0.,-8.864937893912));
#72 = ORIENTED_EDGE('',*,*,#73,.T.);
#73 = EDGE_CURVE('',#67,#38,#74,.T.);
#74 = B_SPLINE_CURVE_WITH_KNOTS('',1,(#75,#76),.UNSPECIFIED.,.F.,.F.,(2,
    2),(-12.,0.),.PIECEWISE_BEZIER_KNOTS.);
#75 = CARTESIAN_POINT('',(32.504772277678,0.,-8.864937893912));
#76 = CARTESIAN_POINT('',(32.504772277678,11.819917191883,
    -8.864937893912));
#77 = ORIENTED_EDGE('',*,*,#37,.F.);
#78 = ORIENTED_EDGE('',*,*,#79,.F.);
#79 = EDGE_CURVE('',#80,#31,#82,.T.);
#80 = VERTEX_POINT('',#81);
#81 = CARTESIAN_POINT('',(32.504772277678,11.819917191883,5.909958595941
    ));
#82 = B_SPLINE_CURVE_WITH_KNOTS('',1,(#83,#84),.UNSPECIFIED.,.F.,.F.,(2,
    2),(5.329070518201E-15,12.),.PIECEWISE_BEZIER_KNOTS.);
#83 = CARTESIAN_POINT('',(32.504772277678,11.819917191883,5.909958595941
    ));
#84 = CARTESIAN_POINT('',(32.504772277678,11.819917191883,
    -5.909958595941));
#85 = ORIENTED_EDGE('',*,*,#86,.F.);
#86 = EDGE_CURVE('',#87,#80,#89,.T.);
#87 = VERTEX_POINT('',#88);
#88 = CARTESIAN_POINT('',(32.504772277678,11.819917191883,8.864937893912
    ));
#89 = B_SPLINE_CURVE_WITH_KNOTS('',1,(#90,#91),.UNSPECIFIED.,.F.,.F.,(2,
    2),(-30.,-27.),.PIECEWISE_BEZIER_KNOTS.);
#90 = CARTESIAN_POINT('',(32.504772277678,11.819917191883,8.864937893912
    ));
#91 = CARTESIAN_POINT('',(32.504772277678,11.819917191883,5.909958595941
    ));
#92 = ORIENTED_EDGE('',*,*,#93,.T.);
#93 = EDGE_CURVE('',#87,#65,#94,.T.);
#94 = B_SPLINE_CURVE_WITH_KNOTS('',1,(#95,#96),.UNSPECIFIED.,.F.,.F.,(2,
    2),(0.,12.),.PIECEWISE_BEZIER_KNOTS.);
#95 = CARTESIAN_POINT('',(32.504772277678,11.819917191883,8.864937893912
    ));
#96 = CARTESIAN_POINT('',(32.504772277678,0.,8.864937893912));
#97 = B_SPLINE_SURFACE_WITH_KNOTS('',1,1,(
    (#98,#99)
    ,(#100,#101
    )),.UNSPECIFIED.,.F.,.F.,.F.,(2,2),(2,2),(12.,30.),(-12.,0.),
  .PIECEWISE_BEZIER_KNOTS.);
#98 = CARTESIAN_POINT('',(32.504772277678,0.,-8.864937893912));
#99 = CARTESIAN_POINT('',(32.504772277678,11.819917191883,
    -8.864937893912));
#100 = CARTESIAN_POINT('',(32.504772277678,0.,8.864937893912));
#101 = CARTESIAN_POINT('',(32.504772277678,11.819917191883,
    8.864937893912));
#102 = ADVANCED_FACE('',(#103),#139,.F.);
#103 = FACE_BOUND('',#104,.T.);
#104 = EDGE_LOOP('',(#105,#114,#121,#126,#127,#134));
#105 = ORIENTED_EDGE('',*,*,#106,.F.);
#106 = EDGE_CURVE('',#107,#109,#111,.T.);
#107 = VERTEX_POINT('',#108);
#108 = CARTESIAN_POINT('',(-32.50477227767,38.414730873619,
    -20.68485508579));
#109 = VERTEX_POINT('',#110);
#110 = CARTESIAN_POINT('',(-32.50477227767,0.,-20.68485508579));
#111 = B_SPLINE_CURVE_WITH_KNOTS('',1,(#112,#113),.UNSPECIFIED.,.F.,.F.,
  (2,2),(-27.,12.),.PIECEWISE_BEZIER_KNOTS.);
#112 = CARTESIAN_POINT('',(-32.50477227767,38.414730873619,
    -20.68485508579));
#113 = CARTESIAN_POINT('',(-32.50477227767,0.,-20.68485508579));
#114 = ORIENTED_EDGE('',*,*,#115,.T.);
#115 = EDGE_CURVE('',#107,#116,#118,.T.);
#116 = VERTEX_POINT('',#117);
#117 = CARTESIAN_POINT('',(-20.68485508579,38.414730873619,
    -20.68485508579));
#118 = B_SPLINE_CURVE_WITH_KNOTS('',1,(#119,#120),.UNSPECIFIED.,.F.,.F.,
  (2,2),(0.,12.),.PIECEWISE_BEZIER_KNOTS.);
#119 = CARTESIAN_POINT('',(-32.50477227767,38.414730873619,
    -20.68485508579));
#120 = CARTESIAN_POINT('',(-20.68485508579,38.414730873619,
    -20.68485508579));
#121 = ORIENTED_EDGE('',*,*,#122,.T.);
#122 = EDGE_CURVE('',#116,#24,#123,.T.);
#123 = B_SPLINE_CURVE_WITH_KNOTS('',1,(#124,#125),.UNSPECIFIED.,.F.,.F.,
  (2,2),(21.,48.),.PIECEWISE_BEZIER_KNOTS.);
#124 = CARTESIAN_POINT('',(-20.68485508579,38.414730873619,
    -20.68485508579));
#125 = CARTESIAN_POINT('',(-20.68485508579,11.819917191883,
    -20.68485508579));
#126 = ORIENTED_EDGE('',*,*,#51,.F.);
#127 = ORIENTED_EDGE('',*,*,#128,.T.);
#128 = EDGE_CURVE('',#45,#129,#131,.T.);
#129 = VERTEX_POINT('',#130);
#130 = CARTESIAN_POINT('',(20.684855085795,0.,-20.68485508579));
#131 = B_SPLINE_CURVE_WITH_KNOTS('',1,(#132,#133),.UNSPECIFIED.,.F.,.F.,
  (2,2),(0.,12.),.PIECEWISE_BEZIER_KNOTS.);
#132 = CARTESIAN_POINT('',(20.684855085795,11.819917191883,
    -20.68485508579));
#133 = CARTESIAN_POINT('',(20.684855085795,0.,-20.68485508579));
#134 = ORIENTED_EDGE('',*,*,#135,.T.);
#135 = EDGE_CURVE('',#129,#109,#136,.T.);
#136 = B_SPLINE_CURVE_WITH_KNOTS('',1,(#137,#138),.UNSPECIFIED.,.F.,.F.,
  (2,2),(-54.,-0.),.PIECEWISE_BEZIER_KNOTS.);
#137 = CARTESIAN_POINT('',(20.684855085795,0.,-20.68485508579));
#138 = CARTESIAN_POINT('',(-32.50477227767,0.,-20.68485508579));
#139 = B_SPLINE_SURFACE_WITH_KNOTS('',1,1,(
    (#140,#141)
    ,(#142,#143
    )),.UNSPECIFIED.,.F.,.F.,.F.,(2,2),(2,2),(0.,54.),(-12.,27.),
  .PIECEWISE_BEZIER_KNOTS.);
#140 = CARTESIAN_POINT('',(-32.50477227767,0.,-20.68485508579));
#141 = CARTESIAN_POINT('',(-32.50477227767,38.414730873619,
    -20.68485508579));
#142 = CARTESIAN_POINT('',(20.684855085795,0.,-20.68485508579));
#143 = CARTESIAN_POINT('',(20.684855085795,38.414730873619,
    -20.68485508579));
#144 = ADVANCED_FACE('',(#145),#176,.F.);
#145 = FACE_BOUND('',#146,.T.);
#146 = EDGE_LOOP('',(#147,#157,#163,#164,#171));
#147 = ORIENTED_EDGE('',*,*,#148,.T.);
#148 = EDGE_CURVE('',#149,#151,#153,.T.);
#149 = VERTEX_POINT('',#150);
#150 = CARTESIAN_POINT('',(-32.50477227767,38.414730873619,
    20.684855085795));
#151 = VERTEX_POINT('',#152);
#152 = CARTESIAN_POINT('',(-32.50477227767,59.099585959414,
    6.834762612287E-15));
#153 = ( BOUNDED_CURVE() B_SPLINE_CURVE(2,(#154,#155,#156),
.UNSPECIFIED.,.F.,.F.) B_SPLINE_CURVE_WITH_KNOTS((3,3),(3.14159265359,
4.712388980385),.PIECEWISE_BEZIER_KNOTS.) CURVE() 
GEOMETRIC_REPRESENTATION_ITEM() RATIONAL_B_SPLINE_CURVE((1.,
0.707106781187,1.)) REPRESENTATION_ITEM('') );
#154 = CARTESIAN_POINT('',(-32.50477227767,38.414730873619,
    20.684855085795));
#155 = CARTESIAN_POINT('',(-32.50477227767,59.099585959414,
    20.684855085795));
#156 = CARTESIAN_POINT('',(-32.50477227767,59.099585959414,
    2.003914220254E-14));
#157 = ORIENTED_EDGE('',*,*,#158,.T.);
#158 = EDGE_CURVE('',#151,#107,#159,.T.);
#159 = ( BOUNDED_CURVE() B_SPLINE_CURVE(2,(#160,#161,#162),
.UNSPECIFIED.,.F.,.F.) B_SPLINE_CURVE_WITH_KNOTS((3,3),(4.712388980385,
6.28318530718),.PIECEWISE_BEZIER_KNOTS.) CURVE() 
GEOMETRIC_REPRESENTATION_ITEM() RATIONAL_B_SPLINE_CURVE((1.,
0.707106781187,1.)) REPRESENTATION_ITEM('') );
#160 = CARTESIAN_POINT('',(-32.50477227767,59.099585959414,
    1.229875493527E-15));
#161 = CARTESIAN_POINT('',(-32.50477227767,59.099585959414,
    -20.68485508579));
#162 = CARTESIAN_POINT('',(-32.50477227767,38.414730873619,
    -20.68485508579));
#163 = ORIENTED_EDGE('',*,*,#106,.T.);
#164 = ORIENTED_EDGE('',*,*,#165,.T.);
#165 = EDGE_CURVE('',#109,#166,#168,.T.);
#166 = VERTEX_POINT('',#167);
#167 = CARTESIAN_POINT('',(-32.50477227767,0.,20.684855085795));
#168 = B_SPLINE_CURVE_WITH_KNOTS('',1,(#169,#170),.UNSPECIFIED.,.F.,.F.,
  (2,2),(0.,42.),.PIECEWISE_BEZIER_KNOTS.);
#169 = CARTESIAN_POINT('',(-32.50477227767,0.,-20.68485508579));
#170 = CARTESIAN_POINT('',(-32.50477227767,0.,20.684855085795));
#171 = ORIENTED_EDGE('',*,*,#172,.F.);
#172 = EDGE_CURVE('',#149,#166,#173,.T.);
#173 = B_SPLINE_CURVE_WITH_KNOTS('',1,(#174,#175),.UNSPECIFIED.,.F.,.F.,
  (2,2),(-27.,12.),.PIECEWISE_BEZIER_KNOTS.);
#174 = CARTESIAN_POINT('',(-32.50477227767,38.414730873619,
    20.684855085795));
#175 = CARTESIAN_POINT('',(-32.50477227767,0.,20.684855085795));
#176 = B_SPLINE_SURFACE_WITH_KNOTS('',1,1,(
    (#177,#178)
    ,(#179,#180
    )),.UNSPECIFIED.,.F.,.F.,.F.,(2,2),(2,2),(-42.,7.105427357601E-15),(
    -12.,48.),.PIECEWISE_BEZIER_KNOTS.);
#177 = CARTESIAN_POINT('',(-32.50477227767,0.,20.684855085795));
#178 = CARTESIAN_POINT('',(-32.50477227767,59.099585959414,
    20.684855085795));
#179 = CARTESIAN_POINT('',(-32.50477227767,0.,-20.68485508579));
#180 = CARTESIAN_POINT('',(-32.50477227767,59.099585959414,
    -20.68485508579));
#181 = ADVANCED_FACE('',(#182),#218,.F.);
#182 = FACE_BOUND('',#183,.T.);
#183 = EDGE_LOOP('',(#184,#193,#198,#199,#206,#213));
#184 = ORIENTED_EDGE('',*,*,#185,.F.);
#185 = EDGE_CURVE('',#186,#188,#190,.T.);
#186 = VERTEX_POINT('',#187);
#187 = CARTESIAN_POINT('',(-20.68485508579,38.414730873619,
    20.684855085795));
#188 = VERTEX_POINT('',#189);
#189 = CARTESIAN_POINT('',(-20.68485508579,11.819917191883,
    20.684855085795));
#190 = B_SPLINE_CURVE_WITH_KNOTS('',1,(#191,#192),.UNSPECIFIED.,.F.,.F.,
  (2,2),(21.,48.),.PIECEWISE_BEZIER_KNOTS.);
#191 = CARTESIAN_POINT('',(-20.68485508579,38.414730873619,
    20.684855085795));
#192 = CARTESIAN_POINT('',(-20.68485508579,11.819917191883,
    20.684855085795));
#193 = ORIENTED_EDGE('',*,*,#194,.T.);
#194 = EDGE_CURVE('',#186,#149,#195,.T.);
#195 = B_SPLINE_CURVE_WITH_KNOTS('',1,(#196,#197),.UNSPECIFIED.,.F.,.F.,
  (2,2),(-12.,-0.),.PIECEWISE_BEZIER_KNOTS.);
#196 = CARTESIAN_POINT('',(-20.68485508579,38.414730873619,
    20.684855085795));
#197 = CARTESIAN_POINT('',(-32.50477227767,38.414730873619,
    20.684855085795));
#198 = ORIENTED_EDGE('',*,*,#172,.T.);
#199 = ORIENTED_EDGE('',*,*,#200,.T.);
#200 = EDGE_CURVE('',#166,#201,#203,.T.);
#201 = VERTEX_POINT('',#202);
#202 = CARTESIAN_POINT('',(20.684855085795,0.,20.684855085795));
#203 = B_SPLINE_CURVE_WITH_KNOTS('',1,(#204,#205),.UNSPECIFIED.,.F.,.F.,
  (2,2),(0.,54.),.PIECEWISE_BEZIER_KNOTS.);
#204 = CARTESIAN_POINT('',(-32.50477227767,0.,20.684855085795));
#205 = CARTESIAN_POINT('',(20.684855085795,0.,20.684855085795));
#206 = ORIENTED_EDGE('',*,*,#207,.T.);
#207 = EDGE_CURVE('',#201,#208,#210,.T.);
#208 = VERTEX_POINT('',#209);
#209 = CARTESIAN_POINT('',(20.684855085795,11.819917191883,
    20.684855085795));
#210 = B_SPLINE_CURVE_WITH_KNOTS('',1,(#211,#212),.UNSPECIFIED.,.F.,.F.,
  (2,2),(-12.,0.),.PIECEWISE_BEZIER_KNOTS.);
#211 = CARTESIAN_POINT('',(20.684855085795,0.,20.684855085795));
#212 = CARTESIAN_POINT('',(20.684855085795,11.819917191883,
    20.684855085795));
#213 = ORIENTED_EDGE('',*,*,#214,.F.);
#214 = EDGE_CURVE('',#188,#208,#215,.T.);
#215 = B_SPLINE_CURVE_WITH_KNOTS('',1,(#216,#217),.UNSPECIFIED.,.F.,.F.,
  (2,2),(12.,54.),.PIECEWISE_BEZIER_KNOTS.);
#216 = CARTESIAN_POINT('',(-20.68485508579,11.819917191883,
    20.684855085795));
#217 = CARTESIAN_POINT('',(20.684855085795,11.819917191883,
    20.684855085795));
#218 = B_SPLINE_SURFACE_WITH_KNOTS('',1,1,(
    (#219,#220)
    ,(#221,#222
    )),.UNSPECIFIED.,.F.,.F.,.F.,(2,2),(2,2),(-54.,0.),(-12.,27.),
  .PIECEWISE_BEZIER_KNOTS.);
#219 = CARTESIAN_POINT('',(20.684855085795,0.,20.684855085795));
#220 = CARTESIAN_POINT('',(20.684855085795,38.414730873619,
    20.684855085795));
#221 = CARTESIAN_POINT('',(-32.50477227767,0.,20.684855085795));
#222 = CARTESIAN_POINT('',(-32.50477227767,38.414730873619,
    20.684855085795));
#223 = ADVANCED_FACE('',(#224),#245,.T.);
#224 = FACE_BOUND('',#225,.T.);
#225 = EDGE_LOOP('',(#226,#233,#238,#239,#244));
#226 = ORIENTED_EDGE('',*,*,#227,.F.);
#227 = EDGE_CURVE('',#228,#80,#230,.T.);
#228 = VERTEX_POINT('',#229);
#229 = CARTESIAN_POINT('',(-20.68485508579,11.819917191883,
    5.909958595941));
#230 = B_SPLINE_CURVE_WITH_KNOTS('',1,(#231,#232),.UNSPECIFIED.,.F.,.F.,
  (2,2),(-3.552713678801E-15,54.),.PIECEWISE_BEZIER_KNOTS.);
#231 = CARTESIAN_POINT('',(-20.68485508579,11.819917191883,
    5.909958595941));
#232 = CARTESIAN_POINT('',(32.504772277678,11.819917191883,
    5.909958595941));
#233 = ORIENTED_EDGE('',*,*,#234,.F.);
#234 = EDGE_CURVE('',#188,#228,#235,.T.);
#235 = B_SPLINE_CURVE_WITH_KNOTS('',1,(#236,#237),.UNSPECIFIED.,.F.,.F.,
  (2,2),(2.934750391447E-31,15.),.PIECEWISE_BEZIER_KNOTS.);
#236 = CARTESIAN_POINT('',(-20.68485508579,11.819917191883,
    20.684855085795));
#237 = CARTESIAN_POINT('',(-20.68485508579,11.819917191883,
    5.909958595941));
#238 = ORIENTED_EDGE('',*,*,#214,.T.);
#239 = ORIENTED_EDGE('',*,*,#240,.T.);
#240 = EDGE_CURVE('',#208,#87,#241,.T.);
#241 = B_SPLINE_CURVE_WITH_KNOTS('',1,(#242,#243),.UNSPECIFIED.,.F.,.F.,
  (2,2),(-3.014577520673E-14,16.970562748477),.PIECEWISE_BEZIER_KNOTS.);
#242 = CARTESIAN_POINT('',(20.684855085795,11.819917191883,
    20.684855085795));
#243 = CARTESIAN_POINT('',(32.504772277678,11.819917191883,
    8.864937893912));
#244 = ORIENTED_EDGE('',*,*,#86,.T.);
#245 = B_SPLINE_SURFACE_WITH_KNOTS('',1,1,(
    (#246,#247)
    ,(#248,#249
    )),.UNSPECIFIED.,.F.,.F.,.F.,(2,2),(2,2),(6.,21.),(-21.,33.),
  .PIECEWISE_BEZIER_KNOTS.);
#246 = CARTESIAN_POINT('',(-20.68485508579,11.819917191883,
    5.909958595941));
#247 = CARTESIAN_POINT('',(32.504772277678,11.819917191883,
    5.909958595941));
#248 = CARTESIAN_POINT('',(-20.68485508579,11.819917191883,
    20.684855085795));
#249 = CARTESIAN_POINT('',(32.504772277678,11.819917191883,
    20.684855085795));
#250 = ADVANCED_FACE('',(#251),#267,.F.);
#251 = FACE_BOUND('',#252,.T.);
#252 = EDGE_LOOP('',(#253,#254,#259,#260,#265,#266));
#253 = ORIENTED_EDGE('',*,*,#135,.F.);
#254 = ORIENTED_EDGE('',*,*,#255,.T.);
#255 = EDGE_CURVE('',#129,#67,#256,.T.);
#256 = B_SPLINE_CURVE_WITH_KNOTS('',1,(#257,#258),.UNSPECIFIED.,.F.,.F.,
  (2,2),(0.,16.970562748477),.PIECEWISE_BEZIER_KNOTS.);
#257 = CARTESIAN_POINT('',(20.684855085795,0.,-20.68485508579));
#258 = CARTESIAN_POINT('',(32.504772277678,0.,-8.864937893912));
#259 = ORIENTED_EDGE('',*,*,#64,.F.);
#260 = ORIENTED_EDGE('',*,*,#261,.T.);
#261 = EDGE_CURVE('',#65,#201,#262,.T.);
#262 = B_SPLINE_CURVE_WITH_KNOTS('',1,(#263,#264),.UNSPECIFIED.,.F.,.F.,
  (2,2),(-5.024295867788E-15,16.970562748477),.PIECEWISE_BEZIER_KNOTS.);
#263 = CARTESIAN_POINT('',(32.504772277678,0.,8.864937893912));
#264 = CARTESIAN_POINT('',(20.684855085795,0.,20.684855085795));
#265 = ORIENTED_EDGE('',*,*,#200,.F.);
#266 = ORIENTED_EDGE('',*,*,#165,.F.);
#267 = B_SPLINE_SURFACE_WITH_KNOTS('',1,1,(
    (#268,#269)
    ,(#270,#271
    )),.UNSPECIFIED.,.F.,.F.,.F.,(2,2),(2,2),(-21.,21.),(-33.,33.),
  .PIECEWISE_BEZIER_KNOTS.);
#268 = CARTESIAN_POINT('',(-32.50477227767,0.,-20.68485508579));
#269 = CARTESIAN_POINT('',(32.504772277678,0.,-20.68485508579));
#270 = CARTESIAN_POINT('',(-32.50477227767,0.,20.684855085795));
#271 = CARTESIAN_POINT('',(32.504772277678,0.,20.684855085795));
#272 = ADVANCED_FACE('',(#273),#279,.F.);
#273 = FACE_BOUND('',#274,.T.);
#274 = EDGE_LOOP('',(#275,#276,#277,#278));
#275 = ORIENTED_EDGE('',*,*,#44,.F.);
#276 = ORIENTED_EDGE('',*,*,#73,.F.);
#277 = ORIENTED_EDGE('',*,*,#255,.F.);
#278 = ORIENTED_EDGE('',*,*,#128,.F.);
#279 = B_SPLINE_SURFACE_WITH_KNOTS('',1,1,(
    (#280,#281)
    ,(#282,#283
    )),.UNSPECIFIED.,.F.,.F.,.F.,(2,2),(2,2),(0.,12.),(0.,
    16.970562748477),.PIECEWISE_BEZIER_KNOTS.);
#280 = CARTESIAN_POINT('',(20.684855085795,11.819917191883,
    -20.68485508579));
#281 = CARTESIAN_POINT('',(32.504772277678,11.819917191883,
    -8.864937893912));
#282 = CARTESIAN_POINT('',(20.684855085795,0.,-20.68485508579));
#283 = CARTESIAN_POINT('',(32.504772277678,0.,-8.864937893912));
#284 = ADVANCED_FACE('',(#285),#291,.F.);
#285 = FACE_BOUND('',#286,.T.);
#286 = EDGE_LOOP('',(#287,#288,#289,#290));
#287 = ORIENTED_EDGE('',*,*,#240,.F.);
#288 = ORIENTED_EDGE('',*,*,#207,.F.);
#289 = ORIENTED_EDGE('',*,*,#261,.F.);
#290 = ORIENTED_EDGE('',*,*,#93,.F.);
#291 = B_SPLINE_SURFACE_WITH_KNOTS('',1,1,(
    (#292,#293)
    ,(#294,#295
    )),.UNSPECIFIED.,.F.,.F.,.F.,(2,2),(2,2),(0.,12.),(
    -5.024295867788E-15,16.970562748477),.PIECEWISE_BEZIER_KNOTS.);
#292 = CARTESIAN_POINT('',(32.504772277678,11.819917191883,
    8.864937893912));
#293 = CARTESIAN_POINT('',(20.684855085795,11.819917191883,
    20.684855085795));
#294 = CARTESIAN_POINT('',(32.504772277678,0.,8.864937893912));
#295 = CARTESIAN_POINT('',(20.684855085795,0.,20.684855085795));
#296 = ADVANCED_FACE('',(#297),#336,.F.);
#297 = FACE_BOUND('',#298,.T.);
#298 = EDGE_LOOP('',(#299,#300,#307,#314,#319,#320,#321,#329,#335));
#299 = ORIENTED_EDGE('',*,*,#234,.T.);
#300 = ORIENTED_EDGE('',*,*,#301,.F.);
#301 = EDGE_CURVE('',#302,#228,#304,.T.);
#302 = VERTEX_POINT('',#303);
#303 = CARTESIAN_POINT('',(-20.68485508579,53.189627363473,
    5.909958595941));
#304 = B_SPLINE_CURVE_WITH_KNOTS('',1,(#305,#306),.UNSPECIFIED.,.F.,.F.,
  (2,2),(0.,42.),.PIECEWISE_BEZIER_KNOTS.);
#305 = CARTESIAN_POINT('',(-20.68485508579,53.189627363473,
    5.909958595941));
#306 = CARTESIAN_POINT('',(-20.68485508579,11.819917191883,
    5.909958595941));
#307 = ORIENTED_EDGE('',*,*,#308,.T.);
#308 = EDGE_CURVE('',#302,#309,#311,.T.);
#309 = VERTEX_POINT('',#310);
#310 = CARTESIAN_POINT('',(-20.68485508579,53.189627363473,
    -5.909958595941));
#311 = B_SPLINE_CURVE_WITH_KNOTS('',1,(#312,#313),.UNSPECIFIED.,.F.,.F.,
  (2,2),(-0.,12.),.PIECEWISE_BEZIER_KNOTS.);
#312 = CARTESIAN_POINT('',(-20.68485508579,53.189627363473,
    5.909958595941));
#313 = CARTESIAN_POINT('',(-20.68485508579,53.189627363473,
    -5.909958595941));
#314 = ORIENTED_EDGE('',*,*,#315,.T.);
#315 = EDGE_CURVE('',#309,#22,#316,.T.);
#316 = B_SPLINE_CURVE_WITH_KNOTS('',1,(#317,#318),.UNSPECIFIED.,.F.,.F.,
  (2,2),(0.,42.),.PIECEWISE_BEZIER_KNOTS.);
#317 = CARTESIAN_POINT('',(-20.68485508579,53.189627363473,
    -5.909958595941));
#318 = CARTESIAN_POINT('',(-20.68485508579,11.819917191883,
    -5.909958595941));
#319 = ORIENTED_EDGE('',*,*,#21,.T.);
#320 = ORIENTED_EDGE('',*,*,#122,.F.);
#321 = ORIENTED_EDGE('',*,*,#322,.T.);
#322 = EDGE_CURVE('',#116,#323,#325,.T.);
#323 = VERTEX_POINT('',#324);
#324 = CARTESIAN_POINT('',(-20.68485508579,59.099585959414,
    6.834762612287E-15));
#325 = ( BOUNDED_CURVE() B_SPLINE_CURVE(2,(#326,#327,#328),
.UNSPECIFIED.,.F.,.F.) B_SPLINE_CURVE_WITH_KNOTS((3,3),(3.14159265359,
4.712388980385),.PIECEWISE_BEZIER_KNOTS.) CURVE() 
GEOMETRIC_REPRESENTATION_ITEM() RATIONAL_B_SPLINE_CURVE((1.,
0.707106781187,1.)) REPRESENTATION_ITEM('') );
#326 = CARTESIAN_POINT('',(-20.68485508579,38.414730873619,
    -20.68485508579));
#327 = CARTESIAN_POINT('',(-20.68485508579,59.099585959414,
    -20.68485508579));
#328 = CARTESIAN_POINT('',(-20.68485508579,59.099585959414,
    -3.799746235747E-15));
#329 = ORIENTED_EDGE('',*,*,#330,.T.);
#330 = EDGE_CURVE('',#323,#186,#331,.T.);
#331 = ( BOUNDED_CURVE() B_SPLINE_CURVE(2,(#332,#333,#334),
.UNSPECIFIED.,.F.,.F.) B_SPLINE_CURVE_WITH_KNOTS((3,3),(4.712388980385,
6.28318530718),.PIECEWISE_BEZIER_KNOTS.) CURVE() 
GEOMETRIC_REPRESENTATION_ITEM() RATIONAL_B_SPLINE_CURVE((1.,
0.707106781187,1.)) REPRESENTATION_ITEM('') );
#332 = CARTESIAN_POINT('',(-20.68485508579,59.099585959414,
    -1.667300300713E-15));
#333 = CARTESIAN_POINT('',(-20.68485508579,59.099585959414,
    20.684855085795));
#334 = CARTESIAN_POINT('',(-20.68485508579,38.414730873619,
    20.684855085795));
#335 = ORIENTED_EDGE('',*,*,#185,.T.);
#336 = B_SPLINE_SURFACE_WITH_KNOTS('',1,1,(
    (#337,#338)
    ,(#339,#340)),.UNSPECIFIED.,.F.,.F.,.F.,(2,2),(2,2),(-42.,0.),(-48.,
    -7.105427357601E-15),.PIECEWISE_BEZIER_KNOTS.);
#337 = CARTESIAN_POINT('',(-20.68485508579,11.819917191883,
    -20.68485508579));
#338 = CARTESIAN_POINT('',(-20.68485508579,59.099585959414,
    -20.68485508579));
#339 = CARTESIAN_POINT('',(-20.68485508579,11.819917191883,
    20.684855085795));
#340 = CARTESIAN_POINT('',(-20.68485508579,59.099585959414,
    20.684855085795));
#341 = ADVANCED_FACE('',(#342),#352,.T.);
#342 = FACE_BOUND('',#343,.T.);
#343 = EDGE_LOOP('',(#344,#345,#346,#351));
#344 = ORIENTED_EDGE('',*,*,#194,.F.);
#345 = ORIENTED_EDGE('',*,*,#330,.F.);
#346 = ORIENTED_EDGE('',*,*,#347,.F.);
#347 = EDGE_CURVE('',#151,#323,#348,.T.);
#348 = B_SPLINE_CURVE_WITH_KNOTS('',1,(#349,#350),.UNSPECIFIED.,.F.,.F.,
  (2,2),(-33.,-21.),.PIECEWISE_BEZIER_KNOTS.);
#349 = CARTESIAN_POINT('',(-32.50477227767,59.099585959414,0.));
#350 = CARTESIAN_POINT('',(-20.68485508579,59.099585959414,0.));
#351 = ORIENTED_EDGE('',*,*,#148,.F.);
#352 = ( BOUNDED_SURFACE() B_SPLINE_SURFACE(2,1,(
    (#353,#354)
    ,(#355,#356)
,(#357,#358
    )),.UNSPECIFIED.,.F.,.F.,.F.) B_SPLINE_SURFACE_WITH_KNOTS((3,3),(2,2
    ),(1.570796326795,3.14159265359),(-33.,-21.),
.PIECEWISE_BEZIER_KNOTS.) GEOMETRIC_REPRESENTATION_ITEM() 
RATIONAL_B_SPLINE_SURFACE((
    (1.,1.)
    ,(0.707106781187,0.707106781187)
,(1.,1.))) REPRESENTATION_ITEM('') SURFACE() );
#353 = CARTESIAN_POINT('',(-32.50477227767,59.099585959414,
    -1.266582078582E-15));
#354 = CARTESIAN_POINT('',(-20.68485508579,59.099585959414,
    -1.266582078582E-15));
#355 = CARTESIAN_POINT('',(-32.50477227767,59.099585959414,
    20.684855085795));
#356 = CARTESIAN_POINT('',(-20.68485508579,59.099585959414,
    20.684855085795));
#357 = CARTESIAN_POINT('',(-32.50477227767,38.414730873619,
    20.684855085795));
#358 = CARTESIAN_POINT('',(-20.68485508579,38.414730873619,
    20.684855085795));
#359 = ADVANCED_FACE('',(#360),#366,.T.);
#360 = FACE_BOUND('',#361,.T.);
#361 = EDGE_LOOP('',(#362,#363,#364,#365));
#362 = ORIENTED_EDGE('',*,*,#322,.F.);
#363 = ORIENTED_EDGE('',*,*,#115,.F.);
#364 = ORIENTED_EDGE('',*,*,#158,.F.);
#365 = ORIENTED_EDGE('',*,*,#347,.T.);
#366 = ( BOUNDED_SURFACE() B_SPLINE_SURFACE(2,1,(
    (#367,#368)
    ,(#369,#370)
,(#371,#372
    )),.UNSPECIFIED.,.F.,.F.,.F.) B_SPLINE_SURFACE_WITH_KNOTS((3,3),(2,2
    ),(1.570796326795,3.14159265359),(21.,33.),
.PIECEWISE_BEZIER_KNOTS.) GEOMETRIC_REPRESENTATION_ITEM() 
RATIONAL_B_SPLINE_SURFACE((
    (1.,1.)
    ,(0.707106781187,0.707106781187)
,(1.,1.))) REPRESENTATION_ITEM('') SURFACE() );
#367 = CARTESIAN_POINT('',(-20.68485508579,59.099585959414,
    1.266582078582E-15));
#368 = CARTESIAN_POINT('',(-32.50477227767,59.099585959414,
    1.266582078582E-15));
#369 = CARTESIAN_POINT('',(-20.68485508579,59.099585959414,
    -20.68485508579));
#370 = CARTESIAN_POINT('',(-32.50477227767,59.099585959414,
    -20.68485508579));
#371 = CARTESIAN_POINT('',(-20.68485508579,38.414730873619,
    -20.68485508579));
#372 = CARTESIAN_POINT('',(-32.50477227767,38.414730873619,
    -20.68485508579));
#373 = ADVANCED_FACE('',(#374),#388,.F.);
#374 = FACE_BOUND('',#375,.T.);
#375 = EDGE_LOOP('',(#376,#381,#382,#387));
#376 = ORIENTED_EDGE('',*,*,#377,.T.);
#377 = EDGE_CURVE('',#31,#309,#378,.T.);
#378 = B_SPLINE_CURVE_WITH_KNOTS('',1,(#379,#380),.UNSPECIFIED.,.F.,.F.,
  (2,2),(0.,68.410525505948),.PIECEWISE_BEZIER_KNOTS.);
#379 = CARTESIAN_POINT('',(32.504772277678,11.819917191883,
    -5.909958595941));
#380 = CARTESIAN_POINT('',(-20.68485508579,53.189627363473,
    -5.909958595941));
#381 = ORIENTED_EDGE('',*,*,#308,.F.);
#382 = ORIENTED_EDGE('',*,*,#383,.F.);
#383 = EDGE_CURVE('',#80,#302,#384,.T.);
#384 = B_SPLINE_CURVE_WITH_KNOTS('',1,(#385,#386),.UNSPECIFIED.,.F.,.F.,
  (2,2),(0.,68.410525505948),.PIECEWISE_BEZIER_KNOTS.);
#385 = CARTESIAN_POINT('',(32.504772277678,11.819917191883,
    5.909958595941));
#386 = CARTESIAN_POINT('',(-20.68485508579,53.189627363473,
    5.909958595941));
#387 = ORIENTED_EDGE('',*,*,#79,.T.);
#388 = B_SPLINE_SURFACE_WITH_KNOTS('',1,1,(
    (#389,#390)
    ,(#391,#392
    )),.UNSPECIFIED.,.F.,.F.,.F.,(2,2),(2,2),(-68.41052550594,0.),(-12.,
    0.),.PIECEWISE_BEZIER_KNOTS.);
#389 = CARTESIAN_POINT('',(-20.68485508579,53.189627363473,
    -5.909958595941));
#390 = CARTESIAN_POINT('',(-20.68485508579,53.189627363473,
    5.909958595941));
#391 = CARTESIAN_POINT('',(32.504772277678,11.819917191883,
    -5.909958595941));
#392 = CARTESIAN_POINT('',(32.504772277678,11.819917191883,
    5.909958595941));
#393 = ADVANCED_FACE('',(#394),#399,.T.);
#394 = FACE_BOUND('',#395,.T.);
#395 = EDGE_LOOP('',(#396,#397,#398));
#396 = ORIENTED_EDGE('',*,*,#383,.T.);
#397 = ORIENTED_EDGE('',*,*,#301,.T.);
#398 = ORIENTED_EDGE('',*,*,#227,.T.);
#399 = B_SPLINE_SURFACE_WITH_KNOTS('',1,1,(
    (#400,#401)
    ,(#402,#403
    )),.UNSPECIFIED.,.F.,.F.,.F.,(2,2),(2,2),(-21.,33.),(12.,54.),
  .PIECEWISE_BEZIER_KNOTS.);
#400 = CARTESIAN_POINT('',(-20.68485508579,11.819917191883,
    5.909958595941));
#401 = CARTESIAN_POINT('',(-20.68485508579,53.189627363473,
    5.909958595941));
#402 = CARTESIAN_POINT('',(32.504772277678,11.819917191883,
    5.909958595941));
#403 = CARTESIAN_POINT('',(32.504772277678,53.189627363473,
    5.909958595941));
#404 = ADVANCED_FACE('',(#405),#410,.F.);
#405 = FACE_BOUND('',#406,.T.);
#406 = EDGE_LOOP('',(#407,#408,#409));
#407 = ORIENTED_EDGE('',*,*,#377,.F.);
#408 = ORIENTED_EDGE('',*,*,#30,.F.);
#409 = ORIENTED_EDGE('',*,*,#315,.F.);
#410 = B_SPLINE_SURFACE_WITH_KNOTS('',1,1,(
    (#411,#412)
    ,(#413,#414
    )),.UNSPECIFIED.,.F.,.F.,.F.,(2,2),(2,2),(-21.,33.),(12.,54.),
  .PIECEWISE_BEZIER_KNOTS.);
#411 = CARTESIAN_POINT('',(-20.68485508579,11.819917191883,
    -5.909958595941));
#412 = CARTESIAN_POINT('',(-20.68485508579,53.189627363473,
    -5.909958595941));
#413 = CARTESIAN_POINT('',(32.504772277678,11.819917191883,
    -5.909958595941));
#414 = CARTESIAN_POINT('',(32.504772277678,53.189627363473,
    -5.909958595941));
#415 = ( GEOMETRIC_REPRESENTATION_CONTEXT(3) 
GLOBAL_UNCERTAINTY_ASSIGNED_CONTEXT((#419)) GLOBAL_UNIT_ASSIGNED_CONTEXT
((#416,#417,#418)) REPRESENTATION_CONTEXT('Context #1',
  '3D Context with UNIT and UNCERTAINTY') );
#416 = ( LENGTH_UNIT() NAMED_UNIT(*) SI_UNIT(.MILLI.,.METRE.) );
#417 = ( NAMED_UNIT(*) PLANE_ANGLE_UNIT() SI_UNIT($,.RADIAN.) );
#418 = ( NAMED_UNIT(*) SI_UNIT($,.STERADIAN.) SOLID_ANGLE_UNIT() );
#419 = UNCERTAINTY_MEASURE_WITH_UNIT(LENGTH_MEASURE(1.E-07),#416,
  'distance_accuracy_value','confusion accuracy');
#420 = PRODUCT_RELATED_PRODUCT_CATEGORY('part',$,(#7));
ENDSEC;
END-ISO-10303-21;
